Led Zeppelin

No Quarter Bass Tabs



More from Led Zeppelin

Led Zeppelin Tabs
Led Zeppelin Chords
Led Zeppelin Bass
Led Zeppelin Lyrics



Intro
G---|-----------------------------------------------|-------------------------------------
D---|------------------7--6--4-----6/7--------7-----|-------------------------------------
A---|-------6/7-----------------5-------4--5-----5--|--2/4--4--4--4--2/4--4--4--4^--------
E---|--75-------5--5-------------------------------|-------------------------------------


Verse (I guess) During Vocals
G------------------------------------------||---------------------------------------------
D------------------------------------2-----||*--------------------------------------------
A---4--------------------------2--------4--||*--------------------------------------------
E------0--2--2--2--2--0--2--4-----4--------||---5-----------5-----------5-----------5-----



G----||---------------------------------------------------------------------||------------
D---*||---------------------------------7--6--4--------6--7--------7--------||*-----------
A---*||---------------6--7--------7--------------7--5--------5--5-----5--4--||*-----------
E----||--5/7--75-----------4--5-----5--------------------------------------||------------


Piano Solo
G-------------------------------------||--------------------------------------------------
D------------------------------------*||--------------------------------------------------
A---------4-----------4-----------4--*||--4-----4-----2--4-----2-----2--4-----------------
E-------------------------------------||-----4-----4--------4-----4-----------4-----------


Groove
G-----------------------6-------6-----6--------------4h6--4h6--4h6--4h6--------|----------
D------------------4h6-----4h6-----------------4--6----------------------6-----|----------
A---------4-----4------------------4-----4----------------------------------4--|----------
E---2--4-----4-----------------------------------------------------------------|--2--4----


Improvise
G---------------4--6--|-------------------------------------------------------------------
D---------4--6--------|-------------------------------------------------------------------
A---2--4--------------|-------------------------------------------------------------------
E---------------------|-------------------------------------------------------------------

Taken from The BassMasta -- http://www.tabs-database.com



Get this song at amazon.com      Ebay     Ringtones Ringtones  


Learn to play: Songwriting, Piano, Harmonica, Guitar
Also available at Muzikum: Led Zeppelin - No quarter lyrics

Related Led Zeppelin Bass Tabs

Four Sticks bass
Since Ive Been Loving You bass
Dazed And Confused bass
Moby Dick - 110% Correct Without A Doubt bass
Moby Dick (%100 Perfect I Promise) bass
Achillies Last Stand bass
Travelling Riverside Blues bass
Ramble On (complete) bass
Dancing Days bass
Fool In The Rain bass
Dazed And Confused Note For Note bass
Black Dog (tabbed From Notes) bass
The Ocean bass
Gallows Pole bass
Royal Orleans (complete) bass
Ozone Baby bass
Immigration Song bass
Kashmir (live) bass
Carouselambra bass
When The Levee Breaks bass


Guitar Tabs









All tabs are property and copyright of their owners. All tabs provided for educational purposes only. Privacy Policy, DMCA