Led Zeppelin

No Quarter Acoustic Tabs



More from Led Zeppelin

Led Zeppelin Tabs
Led Zeppelin Chords
Led Zeppelin Bass
Led Zeppelin Lyrics

----------------------------------------------------------------------------

NO QUARTER (ACOUSTIC) - Page and Plant

----------------------------------------------------------------------------

Tabbed by: Cody (led_zep_1789)

Email: webmaster at tabs-database.com.com, webmaster at tabs-database.com.com



Originally played on a 12-string Acoustic guitar in DADGAD tuning (from low to high).



| / slide up

| \ slide down

| h hammer-on

| p pull-off

| ~ vibrato

| + harmonic

| x Mute note



D|-12+-----2h3p2-0--2-0-3--0-------2h3p2-0--2-0-3--0----|

A|-12+-----0--------0-0-0--0-------0--------0-0-0--0----|

G|-12+-----2--------0-0-0--0-------2--------0-0-0--0----|

D|-12+-----0--------0---0--0-------0--------0---0--0----| Play 2X

A|-12+--------------3---5-------------------3---5-------|

D|-12+---0----------3---5--------0----------3---5-------|



---



D|-----------------------------2h3p2-0--2-0-3--0--|

A|-----------------------------0--------0-0-0--0--|

G|-----2--5--5--7--7--9--9-----2--------0-0-0--0--|

D|-----0--0--0--0--0--0--0-----0--------0---0--0--|

A|-----0--3--3--5--5--7--7-----0--------3---5-----|

D|--0-----------------------0-----------3---5-----|



D|--------------------------2h3p2-0--2-0-3--0----|

A|--------------------------0--------0-0-0--0----|

G|-----5--5--5--7-----------2--------0-0-0--0----|

D|-----0--0--0--0-----------0--------0-0-0--0----|

A|-----3--3--3--5-----------0--------3---5-------|

D|--0-------------5------0-----------3---5-------|



---



D|----------------------------------------------------------------|

A|----------------------------------------------------------------|

G|-----2--5--5--7--7--8-------------------------------------------|

D|-----0--0--0--0--0--0-------------------------------------------|

A|-----0--3--3--5--5--6------1---0---1---0---1---1/6--0--6--0--6--|

D|--0------------------------1---0---1---0---1---1/6--0--6--0--6--|



D|----------------------------------------------------------------|

A|----------------------------------------------------------------|

G|---------------------------------------7-7/8\7--7/8\7--7/8\7----|

D|----------------------------------------------------------------|

A|--6--6----6--6----5-----3--2--2-0------5-5/6\5--5/6\5--5/6\5----|

D|--6--6----6--6----5-----3--2--2-0-------------------------------|



D|----------------------------------------------------------------|

A|----------------------------------------------------------------|

G|---------------------------------------7-7/8\7--7/8\7--7/8\7----|

D|----------------------------------------------------------------|

A|--6--6----6--6----5-----3--2--2-0------5-5/6\5--5/6\5--5/6\5----|

D|--6--6----6--6----5-----3--2--2-0-------------------------------|



---



D|-12+-----2h3p2-0--2-0-3--0-------2h3p2-0--2-0-3--0----|

A|-12+-----0--------0-0-0--0-------0--------0-0-0--0----|

G|-12+-----2--------0-0-0--0-------2--------0-0-0--0----|

D|-12+-----0--------0---0--0-------0--------0---0--0----| Play 2X

A|-12+--------------3---5-------------------3---5-------|

D|-12+---0----------3---5--------0----------3---5-------|



*

D|-12+-----2h3p2-0--2-0-3--0-------2h3p2-0--2-0-3--0----5+|

A|-12+-----0--------0-0-0--0-------0--------0-0-0--0----5+|

G|-12+-----2--------0-0-0--0-------2--------0-0-0--0----5+| *Note: Ending

D|-12+-----0--------0---0--0-------0--------0---0--0----5+| harmonic can be

A|-12+--------------3---5-------------------3---5-------5+| played on the 5,

D|-12+---0----------3---5--------0----------3---5-------5+| 7, or 12th frets.Added by tabs-database.com and our distinguished partners
Get this song at amazon.com      Ebay     Ringtones Ringtones  


Learn to play: Songwriting, Piano, Harmonica, Guitar
More Led Zeppelin lyrics available at Muzikum

Related Led Zeppelin Tabs

Bron Yr Aur (Version 2) tabs
Dazed And Confused tabs
Ozone Baby Bass tabs
No Quarter (perfecto) tabs
Down By The Seaside tabs
As Long As I Have You Live tabs
Stairway To Heaven (absolutely Correct) tabs
Achilles Last Stand Remasters tabs
Swan Song tabs
What Is And Should Never be tabs
Dazed And Confused Solo tabs
In Through The Out Door Bass tabs
Night Flight Bass tabs
Bron Y Aur Stomp Bass tabs
The Battle Of Evermore (chords) tabs
Communication Breakdown Intro tabs
Living Loving Maid (Shes Just A Woman) tabs
I Cant Quit You tabs
Black Country Woman Intro tabs
Thats The Way Live tabs


Guitar Tabs









All tabs are property and copyright of their owners. All tabs provided for educational purposes only. Privacy Policy, DMCA