Led Zeppelin

Night Flight Bass Tabs



More from Led Zeppelin

Led Zeppelin Tabs
Led Zeppelin Chords
Led Zeppelin Bass
Led Zeppelin Lyrics



LED ZEPPELIN
Night Flight


Standard Tuning

G|----------------|----------------|----------------|----------------|----------------|
D|----------------|7---------------|7-7-------------|7-7-------------|7-7-------------|
A|----------------|----------------|----------------|----------------|----------------|
E|----------------|----------------|----------------|----------------|----------------|
I received a message from my....

G|----------------|----------------|----------------|----------------|
D|7-7----77-7-7---|7-7----77-7-----|7-7----77-7-----|7---------------|
A|----------------|----------------|----------------|----------4-5-6-|
E|----------------|----------------|----------------|----------------|

G|----------------|----------------|----------------|----------------|
D|----------------|----------------|----------------|--------------2-|
A|7------77-----7-|7-------7-7-7-7-|5-5-----5-5-----|5-5-----5-5-----|
E|----------------|----------------|----------------|----------------|

G|----------------|----------------|----------------|----------------|
D|3-3-33-33-3-3-3-|------------2-3-|5-5-------------|5-5-5-5-5-------|
A|----------------|3-3-----3-3-----|--------5-5-----|----------------|
E|----------------|----------------|----------------|----------------|

G|----------------|----------------|----------------|----------------|
D|7---------------|7-7-------------|7-7-------------|7-7------------7|
A|----------------|----------------|----------------|----------------|
E|----------------|----------------|----------------|----------------|

G|----------------|----------------|----------------|----------------|
D|7-7-7--777777---|7-7-7--777777---|7-7-7--777777---|7-7-7--77-------|
A|----------------|----------------|----------------|----------------|
E|----------------|----------------|----------------|----------------|

G|----------------|----------------|----------------|----------------|
D|----------------|----------------|----------------|----------------|
A|----------------|----------------|----------------|---------------5|
E|5-5-5-5-5-5-5-5-|5-5-5-5-5-5-5-5-|5-5-5-5-5-5-5-5-|5-555-5555555-5-|
I just jumped a train that never stops....

G|----------------|----------------|----------------|----------------|
D|7777777777777777|7777777777777777|7777777777777777|77777777--------|
A|----------------|----------------|----------------|--------0-44-566|
E|----------------|----------------|----------------|----------------|

G|----------------|----------------|----------------|----------------|
D|----------------|----------------|----------------|----------------|
A|7-7-7-777-7-7-45|7-7-7-7-7-7---4-|5-5-5-5-5-5-5-5-|5-5-5-5-5-5-5-5-|
E|----------------|------------7---|----------------|----------------|

G|----------------|----------------|----------------|----------------|
D|----3-----------|------------2-3-|5-5---5---------|5-5-5-5-5-------|
A|3-3---3-3-3-3-2-|3-3-3-3---------|--------5-5-7-7-|----------------|
E|----------------|--------0-------|----------------|----------------|

2/4 time
G|----------------|----------------|----------------|--------|
D|--------3-2-----|----------------|----------------|--------|
A|------------5-2-|----------------|----------------|--------|
E|3-3-3-----------|3-3-3-3-3-------|----------------|--------|
Oh mama well I think it's time I'm leaving

4/4 time
G|----------------|----------------|----------------|
D|--------3-2-----|----------------|--------3-2-----|
A|------------5-2-|----------------|------------5-2-|
E|3-3-3-3---------|3-2-3-3-3-3-3-3-|3-3-3-3---------|

G|----------------|----------------|----------------|
D|--------3-2-----|----------------|----------------|
A|------------5-2-|----------------|--------------2-|
E|3-2-3-3---------|3---------------|----------------|

G|----------------|----5-5-3-------|----------------|----------------|
D|----------------|----------5-3---|----5-5-3-------|----------------|
A|3---------------|3---------------|----------5-3---|----------0-1-2-|
E|----------0-1-2-|----------------|3---------------|3---------------|

G|----------------|----------------|----------------|----------------|
D|----------------|----------------|----5-------3-5-|--------3-5-----|
A|3-3---3-3-------|3---1---3-0-3-5-|----------------|------------1-2-|
E|----------0-1-3-|--0-------------|3-3---3-3-3-----|3-3-3-3---------|

G|------3---2-----|----------------|----------------|----------------|
D|------------5-2-|----------------|----------3-5---|--3-5-----------|
A|3-3-------------|3-2-3---1-0-----|----------------|----------------|
E|----------------|------0-----3-0-|3-3-3-3-3-----3-|3-----3-3-3-3-4-|

G|----------------|----------------|----------------|----------------|
D|----------------|----------------|----------------|7-7-----------7-|
A|0---------------|0-0-------------|0-0-----------07|-7-------------7|
E|----------------|----------------|----------------|----------------|

G|----------------|----------------|----------------|----------------|
D|----------------|----------------|----------------|----------------|
A|0-0-0-0-0-0-0-0-|0-0-0-0-0-0-0-0-|0-0-0-0-0-0-0-0-|0-0-0-000-004477|
E|----------------|----------------|----------------|----------------|

G|----------------|----------------|----------------|----------------|
D|7-7-777777777777|7777777777777777|7777777777777777|77777777--------|
A|----------------|----------------|----------------|--------0-04-455|
E|----------------|----------------|----------------|----------------|

G|----------------|----------------|----------------|----------------|
D|----------------|----------------|----------------|----------------|
A|7-7-7-7-7-----7-|----------2-4-5-|5-5-5-5-5-5-5-5-|5-5-5-5-5-5-5-2-|
E|----------7-9---|0-0-0-0-4-------|----------------|----------------|
Come on, come on now, meet me in the morning....

G|----------------|----------------|----------------|----------------|
D|----3-------3---|----------2-3-4-|5-5-5-5-5-5-5-5-|5-5-5-5-5-------|
A|3-3---3-3-3-3-2-|3-2-3-3-3-------|----------------|----------------|
E|----------------|----------------|----------------|--------------2-|

G|----------------|----------------|----------------|----------------|
D|----------------|----------------|------3-2-0-----|--------5-------|
A|----------------|----------------|------------1-2-|----2-5---------|
E|3-3-3-3-3-3-3-3-|3-3-3-3-3-----2-|3-3-3-----------|3-3-----------2-|

G|----------------|----------------|----------------|----------------|
D|------3-2-0-----|----------------|------3---2-0---|----------------|
A|------------1-2-|----------------|--------------12|----------------|
E|3-3-3-----------|3-3-3-3-3-----2-|3-3-3-----------|3-3-3-3-3-----2-|

G|----------------|----------------|----------------|----------------|
D|------3---2-0---|----------------|----5-3-2---0---|--------5-------|
A|--------------12|----------------|--------------2-|----------------|
E|3-3-3-----------|3-3-3-3-3-----2-|3-3-------------|3-3-3-3---------|

Taken from The BassMasta -- http://www.tabs-database.com



Get this song at amazon.com      Ebay     Ringtones Ringtones  


Learn to play: Songwriting, Piano, Harmonica, Guitar
Also available at Muzikum: Led Zeppelin - Night Flight lyrics

Related Led Zeppelin Bass Tabs

The Rover bass
Bron Y Aur Stomp bass
Thank You bass
The Wanton Song (complete) bass
Gallows Pole 99 9% Correct bass
Lemon Song (main Riff) bass
Bring It On Home Alternate Version bass
Baby Come On Home bass
Four Sticks bass
Dancing Days bass
Rock And Roll bass
Moby Dick-1000000% bass
Rock And Roll Correct Version bass
The Crunge bass
Stairway To Heaven( Out Of Book, Perfect No Questions Asked) bass
The Rain Song bass
Babe, Im Going To Leave You bass
Friends bass
Dyer Maker bass
South Bound Saurez bass


Guitar Tabs









All tabs are property and copyright of their owners. All tabs provided for educational purposes only. Privacy Policy, DMCA