Led Zeppelin

Moby Dick (live) Bass Tabs



More from Led Zeppelin

Led Zeppelin Tabs
Led Zeppelin Chords
Led Zeppelin Bass
Led Zeppelin Lyrics




G|--------------------|
D|--------------------|
A|-55-5-3p0----------|
E|----------11-3-11-3-| x4

G|-------------------|
D|--55-3p0-----------|
A|---------11-3-11-3-|
E|-3------------------| x2

G|--------------------|
D|--------------------|
A|-55-5-3p0----------|
E|----------11-3-11-3-| x2

G|----------------------------7-5p3-------|
D|-7-7-77-5-7-7-0-5-7-5-5-55------5-3-5--|
A|-----------------------------------------|
E|-----------------------------------------|

G|--------------------|
D|--------------------|
A|-55-5-3p0----------|
E|----------11-3-11-3-|x3

stop

G|--------------------|
D|--------------------|
A|-55-5-3p0----------|
E|----------11-3-11-3-|

stop

G|-------------------|
D|--55-3p0-----------|
A|---------11-3-11-3-|
E|-3------------------|

stop

G|--------------------|
D|--------------------|
A|-55-5-3p0----------|
E|----------11-3-11-3-|

G|------------|
D|------------|
A|-55---------|
E|---22-33-44-|
its a little after the guitar starts

G|----------------------------7-5p3-------|
D|-7-7-77-5-7-7-0-5-7-5-5-55------5-3-5--|
A|-----------------------------------------|
E|-----------------------------------------|

G|----|
D|----|
A|-5--|
E|----|


G|--------------------|
D|--------------------|
A|-55-5-3p0----------|
E|----------11-3-11-3-|

G|-------------------|
D|--55-3p0-----------|
A|---------11-3-11-3-|
E|-3------------------|

G|----------------------------7-5p3-------|
D|-7-7-77-5-7-7-0-5-7-5-5-55------5-3-5--|
A|-----------------------------------------|
E|-----------------------------------------|

G|---------|
D|---------|
A|-5-3-0---|
E|----------|
Wait

G|-7---------7-9---|
D|-7------7-9------|
A|-5-5-7-9-------5-|
E|------------------|

End



Get this song at amazon.com      Ebay     Ringtones Ringtones  


Learn to play: Songwriting, Piano, Harmonica, Guitar
More Led Zeppelin lyrics available at Muzikum

Related Led Zeppelin Bass Tabs

Since I've Been Loving You bass
Stair Way To Heaven (correct) bass
Houses Of The Holy bass
The Lemon Song bass
The Ocean-perfect bass
Out On The Tiles bass
Stairway To Heaven Intro bass
The Wanton Song (complete) bass
Baby Come On Home bass
South Bound Saurez bass
Heartbreaker bass
Travelling Riverside Blues bass
Fool In The Rain bass
Rock And Roll(studio Version) bass
Living Loving Maid bass
Stairway To Heaven bass
Kashmire bass
In The Light bass
Communitcation Breakdown bass
Candy Store Rock bass


Guitar Tabs









All tabs are property and copyright of their owners. All tabs provided for educational purposes only. Privacy Policy, DMCA