Led Zeppelin

Moby Dick Bass Tabs



More from Led Zeppelin

Led Zeppelin Tabs
Led Zeppelin Chords
Led Zeppelin Bass
Led Zeppelin Lyrics

Moby Dick - Led Zeppelin

>From Led Zeppelin II

Here's the notation:

12/16 - slide up
7p5 - pull off
12h14 - hammer on


D Shape

G|----7-7p5-----------
D|----------7-5-7-5-7-
A|--5-----------------
E|--------------------

G Shape

G|-----12-12p10----------------
D|--------------12-10-12-10-12-
A|--10-------------------------
E|-----------------------------

A Shape

G|-----14-14p12h14-14-14-12-14-
D|-----------------------------
A|--12-------------------------
E|-----------------------------

G|--12-12-12-12-12-12/16-14-12-14-12-10-
D|--------------------------------------
A|--------------------------------------
E|--------------------------------------


This song seems to be based on a 12-bar blues,
so it should go:
-D-D-D-D-G-G-D-D-A-D-
Listening to the song should help alot.


        />  "Of all the things I've lost, I
       /<   think I miss my mind the most"
*[/////|:::==================================-
       <          Ozzy Osborne
        >
Get this song at amazon.com      Ebay     Ringtones Ringtones  


Learn to play: Songwriting, Piano, Harmonica, Guitar
Also available at Muzikum: Led Zeppelin - Moby Dick lyrics

Related Led Zeppelin Bass Tabs

Dazed And Confused Note For Note bass
Heartbreaker bass
The Crunge bass
Dazed And Confused (correct) bass
Stairway To Heaven Intro On 6 String bass
Walters Walk bass
In The Light 4 String bass
Royal Orleans bass
Dazed And Confuzed bass
Carouselambra bass
I Cant Quit You Baby bass
Ocean (perfect Riff) bass
Kashmir (correct) bass
Sick Again bass
Kashmir bass
All My Love bass
How Many More Times bass
The Gilr I Love, She Got Long Black Wavy Hair bass
South Bound Saurez bass
You Shook Me bass


Guitar Tabs









All tabs are property and copyright of their owners. All tabs provided for educational purposes only. Privacy Policy, DMCA