Led Zeppelin

Moby Dick-1000000% Bass Tabs



More from Led Zeppelin

Led Zeppelin Tabs
Led Zeppelin Chords
Led Zeppelin Bass
Led Zeppelin Lyrics




Riff 1
g---7----7p5----------------|
d------------7-3---5-3---5-3| x4
a-5-------------------------|
e---------------------------|

Riff 2
g---------------------------|
d---5---5p3-----------------| x2
a------------5-1---3-1---3-1|
e-3-------------------------|

Riff 1
g---7----7p5----------------| ---------------7---5-------|
d------------7-3---5-3---5-3| x4 -5-5-5-5-5-3----------7-5-3|
a-5-------------------------| -------------5-------------|
e---------------------------| ---------------------------|

Riff 1
g---7----7p5----------------|
d------------7-3---5-3---5-3| x4
a-5-------------------------|
e---------------------------|

A-5~-------

Riff 2
g---------------------------|
d---5---5p3-----------------|
a------------5-1---3-1---3-1|
e-3-------------------------|

E--3~-------

Riff 1
g---7----7p5----------------|
d------------7-3---5-3---5-3|
a-5-------------------------|
e---------------------------|

g------------------------|
d------------------------|
a-5----------------------|
e--------2h3--3-3-3---4-4|

g-------------------------|---------------7----5-------|
d---7--7h5---7---7----5--7|-5-5-5-5-5-3-----------7-5-3|
a----------7--------7-----|-------------5--------------|
e-5-----------------------|----------------------------|

A--5~----

Drum Solo starts

Riff 1
g---7----7p5----------------|
d------------7-3---5-3---5-3|
a-5-------------------------|
e---------------------------|

A--5~---

Riff 2
g---------------------------|
d---5---5p3-----------------|
a------------5-1---3-1---3-1|
e-3-------------------------|

A--3~---

Riff 1
g---7----7p5----------------| ---------------7---5-------|
d------------7-3---5-3---5-3| x4 -5-5-5-5-5-3----------7-5-3|
a-5-------------------------| -------------5-------------|
e---------------------------| ---------------------------|

A-----5----3

E-3~----



Get this song at amazon.com      Ebay     Ringtones Ringtones  


Learn to play: Songwriting, Piano, Harmonica, Guitar
More Led Zeppelin lyrics available at Muzikum

Related Led Zeppelin Bass Tabs

In The Evening bass
The Rover bass
Lemon Song (main Riff) bass
Bring It On Home Alternate Version bass
Stairway To Heaven Intro On 6 String bass
Black Dog Bass Tab bass
The Lemon Song bass
Carouselambra bass
Lemon Song bass
The Ocean (100% Correct) bass
Candy Store Rock bass
I Can't Quit You Baby bass
Sick Again bass
Immigrant Song bass
Heartbreaker bass
Moby Dick-1000000% bass
Thats The Way bass
Rock & Roll bass
Over The Hills And Far Away bass
When The Levee Breaks Standard Tuning bass


Guitar Tabs









All tabs are property and copyright of their owners. All tabs provided for educational purposes only. Privacy Policy, DMCA