Led Zeppelin

Moby Dick (%100 Perfect I Promise) Bass Tabs



More from Led Zeppelin

Led Zeppelin Tabs
Led Zeppelin Chords
Led Zeppelin Bass
Led Zeppelin Lyrics




ok well this is my fifth tab and this song i have tabbed it is a fun song to play.
so i hope you like it and please rate it.
kk
have fun

h=Hammer
~=Ring


Drums play

----7------7h5-----------------------
----------------7--3----5--3---5--3-- x4
-5-----------------------------------
-------------------------------------


-------------------------------------
-----5----5h3------------------------ x2
----------------5--1----3--1---3---1-
--3----------------------------------


----7------7h5-----------------------
----------------7--3----5--3---5--3-- x2
-5-----------------------------------
-------------------------------------


------------------7----5------------
--5-5-5-5-5-3--------------7--5--3--
---------------5--------------------
------------------------------------


------7------7h5--------------------
------------------7--3---5--3--5--3- x3
--5---------------------------------
------------------------------------


---7-------7h5-----------------------
----------------7--3----5--3---5--3--
-5-----------------------------------
-------------------------------------


---------------
---------------
-----5~--------
---------------


-------------------------------------
------5---5h3------------------------
---------------5--1----3--1---3---1--
-3-----------------------------------


-------------
-------------
-------------
----3~-------


----7------7h5-----------------------
----------------7--3----5--3---5--3--
-5-----------------------------------
-------------------------------------


--------------------------------
--------------------------------
----5---------------------------
------------2h3---3-3-3--4-4----


-------------------------------------
------7--7h5-----7----7-----5---7----
--------------7-----------7----------
---5---------------------------------


------------------7----5------------
--5-5-5-5-5-3--------------7-5-3----
---------------5--------------------
------------------------------------


----------------
----------------
--5~------------
----------------


Drum Solo


----7------7h5-----------------------
----------------7--3----5--3---5--3--
-5-----------------------------------
-------------------------------------


-------------
-------------
--5~---------
-------------



-------------------------------------
------5---5h3------------------------
---------------5--1----3--1---3---1--
-3-----------------------------------


-----------
-----------
---3~------
-----------


--------7---7h5---------------------
----5-------------7-3----5-3---5-3--
------------------------------------
------------------------------------



------------------7----5------------
--5-5-5-5-5-3--------------7-5-3----
---------------5--------------------
------------------------------------


----------------
----------------
----5-----3-----
----------------


-----------------
-----------------
-----------------
--3~-------------



Get this song at amazon.com      Ebay     Ringtones Ringtones  


Learn to play: Songwriting, Piano, Harmonica, Guitar
More Led Zeppelin lyrics available at Muzikum

Related Led Zeppelin Bass Tabs

Stairway To Heaven Intro bass
Misty Mountain Hop bass
Kashmire bass
The Gilr I Love, She Got Long Black Wavy Hair bass
Achilles Last Stand bass
In My Time Of Dying bass
Crunge bass
Nobodys Fault But Mine bass
The Song Remains The Same bass
California Girl bass
Dancing Days bass
Down By The Seaside bass
Heart Breaker bass
Whole Lotta Love bass
Dazed And Confuzed bass
Friends bass
Misty Moutain Hop bass
The Wanton Song (complete) bass
Thats The Way bass
The Wanton Song bass


Guitar Tabs









All tabs are property and copyright of their owners. All tabs provided for educational purposes only. Privacy Policy, DMCA

Online converter - videoconverter.com