Led Zeppelin

Misty Mountain Hop Tabs



More from Led Zeppelin

Led Zeppelin Tabs
Led Zeppelin Chords
Led Zeppelin Bass
Led Zeppelin Lyrics

E|-------------------------|

B|-------------------------|

G|-------------------------|

D|-------------------------| x6

A|--0----------------------|

E|----3-0-0-0--------------|



E-------------------------------------------------------------|

B---6--7--5--6--7(7)--5--6--7(7)--5--6--7(7)-5--6--7(7)--5--7-|

G---6--7--5--6--7(7)--5--6--7(7)--5--6--7(7)-5--6--7(7)--5--7-|

D---6--7--5--6--7(7)--5--6--7(7)--5--6--7(7)-5--6--7(7)--5--7-|

A---4--5--3--4--5(5)--3--4--5(5)--3--4--5(7)-3--4--5(5)--3--5-|

E-------------------------------------------------------------|



E|-------------------------|

B|-------------------------|

G|-------------------------|

D|-------------------------| x4

A|--0----------------------|

E|----3-0-0-0--------------|



E-------------------------------------------------------------|

B---6--7--5--6--7(7)--5--6--7(7)--5--6--7(7)-5--6--7(7)--5--7-|

G---6--7--5--6--7(7)--5--6--7(7)--5--6--7(7)-5--6--7(7)--5--7-|

D---6--7--5--6--7(7)--5--6--7(7)--5--6--7(7)-5--6--7(7)--5--7-|

A---4--5--3--4--5(5)--3--4--5(5)--3--4--5(7)-3--4--5(5)--3--5-|

E-------------------------------------------------------------|



E|-------------------------|

B|-------------------------|

G|-------------------------|

D|-------------------------| x4

A|--0----------------------|

E|----3-0-0-0--------------|



E-----------2------------------|

B---------3---3----------------|

G-------2-------2---------0----|

D---0-------------------0------|

A---------------------2--------|

E-----------------0h3----------|



E|-------------------------|

B|-------------------------|

G|-------------------------|

D|-------------------------| x2

A|--0----------------------|

E|----3-0-0-0--------------|



E-----------2------------------|

B---------3---3----------------|

G-------2-------2---------0----|

D---0-------------------0------|

A---------------------2--------|

E-----------------0h3----------|



E|-------------------------|

B|-------------------------|

G|-------------------------|

D|-------------------------| x6

A|--0----------------------|

E|----3-0-0-0--------------|





E-------------------------------------------------------------|

B---6--7--5--6--7(7)--5--6--7(7)--5--6--7(7)-5--6--7(7)--5--7-|

G---6--7--5--6--7(7)--5--6--7(7)--5--6--7(7)-5--6--7(7)--5--7-|

D---6--7--5--6--7(7)--5--6--7(7)--5--6--7(7)-5--6--7(7)--5--7-|

A---4--5--3--4--5(5)--3--4--5(5)--3--4--5(7)-3--4--5(5)--3--5-|

E-------------------------------------------------------------|



E|-------------------------|

B|-------------------------|

G|-------------------------|

D|-------------------------| x4

A|--0----------------------|

E|----3-0-0-0--------------|



E-------------------------------------------------------------|

B---6--7--5--6--7(7)--5--6--7(7)--5--6--7(7)-5--6--7(7)--5--7-|

G---6--7--5--6--7(7)--5--6--7(7)--5--6--7(7)-5--6--7(7)--5--7-|

D---6--7--5--6--7(7)--5--6--7(7)--5--6--7(7)-5--6--7(7)--5--7-|

A---4--5--3--4--5(5)--3--4--5(5)--3--4--5(7)-3--4--5(5)--3--5-|

E-------------------------------------------------------------|



E|-------------------------|

B|-------------------------|

G|-------------------------|

D|-------------------------| x4

A|--0----------------------|

E|----3-0-0-0--------------|



E-----------2------------------|

B---------3---3----------------|

G-------2-------2---------0----|

D---0-------------------0------|

A---------------------2--------|

E-----------------0h3----------|



E|-------------------------|

B|-------------------------|

G|-------------------------|

D|-------------------------| x2

A|--0----------------------|

E|----3-0-0-0--------------|



E-----------2------------------|

B---------3---3----------------|

G-------2-------2---------0----|

D---0-------------------0------|

A---------------------2--------|

E-----------------0h3----------|



E|-------------------------|

B|-------------------------|

G|-------------------------|

D|-------------------------| x6

A|--0----------------------|

E|----3-0-0-0--------------|



E-------------------------------------------------------------|

B---6--7--5--6--7(7)--5--6--7(7)--5--6--7(7)-5--6--7(7)--5--7-|

G---6--7--5--6--7(7)--5--6--7(7)--5--6--7(7)-5--6--7(7)--5--7-|

D---6--7--5--6--7(7)--5--6--7(7)--5--6--7(7)-5--6--7(7)--5--7-|

A---4--5--3--4--5(5)--3--4--5(5)--3--4--5(7)-3--4--5(5)--3--5-|

E-------------------------------------------------------------|



E|-------------------------|

B|-------------------------|

G|-------------------------|

D|-------------------------| x4

A|--0----------------------|

E|----3-0-0-0--------------|



E-------------------------------------------------------------|

B---6--7--5--6--7(7)--5--6--7(7)--5--6--7(7)-5--6--7(7)--5--7-|

G---6--7--5--6--7(7)--5--6--7(7)--5--6--7(7)-5--6--7(7)--5--7-|

D---6--7--5--6--7(7)--5--6--7(7)--5--6--7(7)-5--6--7(7)--5--7-|

A---4--5--3--4--5(5)--3--4--5(5)--3--4--5(7)-3--4--5(5)--3--5-|

E-------------------------------------------------------------|



e|-------------------------|

B|-------------------------|

G|-------------------------|

D|-------------------------| x4

A|--0----------------------|

E|----3-0-0-0--------------|



E-----------2------------------|

B---------3---3----------------|

G-------2-------2---------0----|

D---0-------------------0------|

A---------------------2--------|

E-----------------0h3----------|



E|-------------------------|

B|-------------------------|

G|-------------------------|

D|-------------------------| x2

A|--0----------------------|

E|----3-0-0-0--------------|



E-----------2------------------|

B---------3---3----------------|

G-------2-------2---------0----|

D---0-------------------0------|

A---------------------2--------|

E-----------------0h3----------|







Solo:

E-----------------------------------------------------------------------

B-----------------------------------------------------------------------

G----6--4--0h2h4----6--4--0h2h4---66--4--0h2h4---66--4--0h2h4----11-9---

D-----------------------------------------------------------------------

A-----------------------------------------------------------------------

E-----------------------------------------------------------------------



E-----------------------------------------------------------------------

B-----------------------------------------------------------------------

G--7-9---12\11--9--7-9---12\11--9--7-9---12\11--9--7-9------11p9--------

D------------------------------------------------------------------12p9-

A-----------------------------------------------------------------------

E-----------------------------------------------------------------------



E------10----------------------------------------------10--------------

B---------10b12-10--8---8-10------------------------------10b12---10---

G---------------------9-------------------11p9-------------------------

D--12---------------------------7b9--------------12p9------------------

A----------------------------------------------------------------------

E----------------------------------------------------------------------



E-------------------|

B--8---8-10---------|

G----9-------7b9----| Right after this, play the next part. It starts almost immediately.

D-------------------|

A-------------------|

E-------------------|



E---7/8----7-5-7----------7/9----7-5-7----------

B-----------------5h7p5-----------------5h7p5---

G-----------------------------------------------

D-----------------------------------------------

A-----------------------------------------------

E-----------------------------------------------



E---7/8----7-5-7----------7/9----7-5-7-------------7/8----7-5-7----------7/9----7-5-7----------

B-----------------5h7p5-----------------5h7p5--------------------5h7p5-----------------5h7p5---

G----------------------------------------------------------------------------------------------

D----------------------------------------------------------------------------------------------

A----------------------------------------------------------------------------------------------

E----------------------------------------------------------------------------------------------



E---7/8----7-5-7---------|

B-----------------5h7p5--|

G------------------------|

D------------------------|

A------------------------|

E------------------------|



E-------------------------------------------------------------|

B---6--7--5--6--7(7)--5--6--7(7)--5--6--7(7)-5--6--7(7)--5--7-|

G---6--7--5--6--7(7)--5--6--7(7)--5--6--7(7)-5--6--7(7)--5--7-|

D---6--7--5--6--7(7)--5--6--7(7)--5--6--7(7)-5--6--7(7)--5--7-|

A---4--5--3--4--5(5)--3--4--5(5)--3--4--5(7)-3--4--5(5)--3--5-|

E-------------------------------------------------------------|



E|-------------------------|

B|-------------------------|

G|-------------------------|

D|-------------------------| x4

A|--0----------------------|

E|----3-0-0-0--------------|



E-------------------------------------------------------------|

B---6--7--5--6--7(7)--5--6--7(7)--5--6--7(7)-5--6--7(7)--5--7-|

G---6--7--5--6--7(7)--5--6--7(7)--5--6--7(7)-5--6--7(7)--5--7-|

D---6--7--5--6--7(7)--5--6--7(7)--5--6--7(7)-5--6--7(7)--5--7-|

A---4--5--3--4--5(5)--3--4--5(5)--3--4--5(7)-3--4--5(5)--3--5-|

E-------------------------------------------------------------|



E|-------------------------|

B|-------------------------|

G|-------------------------|

D|-------------------------| x4

A|--0----------------------|

E|----3-0-0-0--------------|



E-----------2------------------|

B---------3---3----------------|

G-------2-------2---------0----|

D---0-------------------0------|

A---------------------2--------|

E-----------------0h3----------|



E|-------------------------|

B|-------------------------|

G|-------------------------|

D|-------------------------| x2

A|--0----------------------|

E|----3-0-0-0--------------|



E-----------2------------------|

B---------3---3----------------|

G-------2-------2---------0----|

D---0-------------------0------|

A---------------------2--------|

E-----------------0h3----------|



E|-------------------------|

B|-------------------------|

G|-------------------------|

D|-------------------------| x6

A|--0----------------------|

E|----3-0-0-0--------------|

Get this song at amazon.com      Ebay     Ringtones Ringtones  


Learn to play: Songwriting, Piano, Harmonica, Guitar
Also available at Muzikum: Led Zeppelin - Misty mountain hop lyrics

Related Led Zeppelin Tabs

Lemon Song Bass tabs
Hots On For Nowhere tabs
Swan Song tabs
Hot Dog tabs
Physical Graffiti Disc 1 tabs
Black Dog4 tabs
I'm Gonna Crawl tabs
Led Zep I tabs
You Shook Me tabs
Tangerine tabs
I Cant Quit You tabs
How Many More Times Solo tabs
Gallows Pole ( Mandolin ) tabs
Some Phs Graff Pres tabs
Lz Time Of Dying tabs
Trampled Underfoot Bass tabs
The Girl I Love tabs
The Wanton Song tabs
Bring It On Home tabs
Stair Way To Heaven tabs


Guitar Tabs









All tabs are property and copyright of their owners. All tabs provided for educational purposes only. Privacy Policy, DMCA