Led Zeppelin

Living Loving Maid Bass Tabs



More from Led Zeppelin

Led Zeppelin Tabs
Led Zeppelin Chords
Led Zeppelin Bass
Led Zeppelin Lyrics

Date: Tue, 18 Jun 2002 22:23:46 +0300 (EEST)
From: =?ISO-8859-1?Q?jan_bj=F6rklund?= 
Subject: l/led_zeppelin/living_loving_maid.btab

l/led_zeppelin/Living_loving_maid_(she's_just_a_woman).btab

TablEdited by Jan Bjorklund   
You are welcome to request for tabs!
Fingering and positions as suggested by TablEdit, please use common sense.


TablEdited by Jan Bjorklund
Tuning : E A D G 	Time Signature: 4/4

  |               |               |               |                 
|------------------------------------------------------------------|
|------------------------------------------------------------------|
|-0-------0---------------0---------------0---------------0--------|
|------------------------------------------------------------------|

  |               |               |               |                 
|------------------------------------------------------------------|
|------------------------------------------------------------------|
|---------0---------------0---------------0---------------0--------|
|------------------------------------------------------------------|

  |               |               |               |                 
||-----------------------------------------------------------------|
|*------------------------------------------------0----------------|
|*0---------------3-----0---------3-------4------------------------|
||--------------------------------------------------------3--------|

  |               |               |               |                 
|------------------------------------------------------------------|
|------------------------------------------------------------------|
|-------------------------0-------3---------------0----------------|
|---------3-------3---------------------------------------------3--|

  |               |               |               |                 
|------------------------------------------------------------------|
|------------------------------------------------------------------|
|---------0-------------------------------0------------------------|
|---------------------------------3--------------------------------|

  |               |               |               |                 
|-----------------------------------------------------------------||
|---------------------------------0-------------------------------*|
|---------0-------0-------0---------------------0-----------------*|
|-----------------------------------------------------------------||

  |               |               |               |                 
|------------------------------------------------------------------|
|------------------------------------------------------------------|
|-0-------0---------------0---------------0---------------0--------|
|------------------------------------------------------------------|

  |               |               |               |                 
|------------------------------------------------------------------|
|------------------------------------------------------------------|
|---------0---------------0---------------0---------------0--------|
|------------------------------------------------------------------|

  |               |               |               |                 
|------------------------------------------------------------------|
|-----------------------------------------------0------------------|
|-0---------------3-------0-------3-------4------------------------|
|---------------------------------------------------------3--------|

  |               |               |               |                 
|------------------------------------------------------------------|
|------------------------------------------------------------------|
|-------------------------0-------3---------------0----------------|
|---------3-------3------------------------------------------------|

  |               |               |               |                 
|------------------------------------------------------------------|
|------------------------------------------------------------------|
|---------0-------------------------------0------------------------|
|-3-------------------------------3--------------------------------|

  |               |               |               |                 
|------------------------------------------------------------------|
|---------------------------------0-----------------------------0--|
|---------0-------0-------0-----------------------0----------------|
|------------------------------------------------------------------|

  |               |               |               |                 
|-----------------------------------------7------------------------|
|-------------------------7-------7-----------------------4--------|
|---------5--------------------------------------------------------|
|------------------------------------------------------------------|

  |               |               |               |                 
|---------0-------0-------1-------2--------------------------------|
|-------------------------------------------------0-----2----------|
|---------------------------------------0-----------------------0--|
|------------------------------------------------------------------|

  |               |               |               |                 
|---------------------------------2-------2---------------0--------|
|-------------------------2----------------------------------------|
|-------0----------------------------------------------------------|
|------------------------------------------------------------------|

  |               |               |               |                 
|-0----------------------------------------------------------------|
|-----------------2-----------------------0---------------------0--|
|-----------------------------------------------0-------3----------|
|------------------------------------------------------------------|

  |               |               |               |                 
|------------------------------------------------------------------|
|------------------------------------------------------------------|
|---------------------------------0-------1---------------2--------|
|-------2-------3-------4------------------------------------------|

  |               |               |               |                 
|------------------------------------------------------------------|
|-------------------------0-----------------------0-------1--------|
|-3-------4-------------------------------0------------------------|
|------------------------------------------------------------------|

  |               |               |               |                 
|------------------------------------------------------------------|
|-2----------------------------------------------------------------|
|------------------------------------------------------------------|
|------------------------------------------------------------------|

  |               |               |               |                 
||----------------------------------------------------------------||
|*----------------------------------------------------------------*|
|*----------------------------------------------------------------*|
||----------------------------------------------------------------||

  |               |               |               |                 
|------------------------------------------------------------------|
|------------------------------------------------------------------|
|------------------------------------------------------------------|
|-0-------0-------0-------0-------0-------0-------0-------0--------|

  |               |               |               |                 
|-----------------------------------------------------------------||
|-----------------------------------------------------------------*|
|-----------------------------------------------------------------*|
|-0-------0-------0-------0-------0-------0-------0-------0-------||

  |               |               |               |                 
|------------------------------------------------------------------|
|------------------------------------------------------------------|
|---------0-------------------------------0------------------------|
|-3-------------------------------3--------------------------------|

  |               |               |               |                 
|------------------------------------------------------------------|
|------------------------------------------------------------------|
|---------0-------------------------------0------------------------|
|-3-------------------------------3--------------------------------|

  |               |               |               |                 
|------------------------------------------------------------------|
|------------------------------------------------------------------|
|------------------------------------------------------------------|
|------------------------------------------------------------------|

  |               |               |               |                 
|------------------------------------------------------------------|
|------------------------------------------------------------------|
|---------0-------------------------------0------------------------|
|-3-------------------------------3--------------------------------|

  |               |               |               |                 
|------------------------------------------------------------------|
|------------------------------------------------------------------|
|---------0-------------------------------0------------------------|
|-3-------------------------------3--------------------------------|

 
Created with TablEdit http://www.tabledit.com/


............................................................
Get this song at amazon.com      Ebay     Ringtones Ringtones  


Learn to play: Songwriting, Piano, Harmonica, Guitar
Also available at Muzikum: Led Zeppelin - Living loving maid lyrics

Related Led Zeppelin Bass Tabs

Hot Dog bass
Black Country Woman bass
Most High bass
The Ocean-perfect bass
Living Loving Maid bass
Friends bass
Walters Walk bass
Bring It On Home- The Whole Song bass
Tangerine bass
Dyer Maker bass
The Crunge bass
In The Light bass
Lemon Song bass
Thank You bass
Custard Pie bass
Sick Again bass
Since I've Been Loving You bass
Black Dog (tabbed From Notes) bass
Babe Im Gonna Leave You bass
How Many More Times Intro bass


Guitar Tabs









All tabs are property and copyright of their owners. All tabs provided for educational purposes only. Privacy Policy, DMCA