Led Zeppelin

Livin\' Lovin\' Woman Tabs



More from Led Zeppelin

Led Zeppelin Tabs
Led Zeppelin Chords
Led Zeppelin Bass
Led Zeppelin Lyrics

Led Zeppelin

Livin’ Lovin’ Woman (She’s Just a Woman)

Led Zeppelin II



Main Riff: Played in the verses

|--0--|------------------------------------------2-2-2-3-2-----------------------------------------------|

|--2--|------------------------------------------2-2-2-3-2-----------------------------------------------|

|--2--|------------------------------------------2-2-2-3-2-----------------------------------------------|

|--2--|------------------------------------------2-2-2-2-2-----------------------------------------------|

|--0--|----3---3-4-5-----------3----5-7-5-7-0-0-0----0-----------------------------------------------|

|--0--|--5---5--------3-3-3-5---5--3-5-3-5------------------------------------------------------------|



Chorus: Played with the chorus

|--2-2-2-2-2-2-2-2---------------------2-2-2-2-2-2-2-2---------------------------------------------|

|--3-3-3-3-3-3-3-3-2-2-2-2-2-2-2-2-3-3-3-3-3-3-3-3---------------------------------------------|

|--2-2-2-2-2-2-2-2-2-2-2-2-2-2-2-2-2-2-2-2-2-2-2-2-1-~----------------------------------------|

|----------------------0-0-0-0-0-0-0-0---------------------2-~----------------------------------------|

|--------------------------------------------------------------2-~----------------------------------------|

|--------------------------------------------------------------0-~----------------------------------------|



Solo

|----------------------------------------------------------------------------------------------------------|

|-------10----10--12--12~-10--12-12-12-10-10\-9-------------------------------------------------|

|-9-11----11---------------------------------------------------------------------------------------------|

|----------------------------------------------------------------------------------------------------------|

|----------------------------------------------------------------------------------------------------------|

|----------------------------------------------------------------------------------------------------------|



|----------------------------------------------------------------------------------------------------------|

|-------10----10--12—12~-10-5-6-7-8-9-10-11-12-14-12-14~~---------------------------------|

|-9-11----11---------------------------------------------------------------------------------------------|

|----------------------------------------------------------------------------------------------------------|

|----------------------------------------------------------------------------------------------------------|

|----------------------------------------------------------------------------------------------------------|
Get this song at amazon.com      Ebay     Ringtones Ringtones  


Learn to play: Songwriting, Piano, Harmonica, Guitar
More Led Zeppelin lyrics available at Muzikum

Related Led Zeppelin Tabs

Heartbreaker tabs
The Immigrant Song (with Lyrics) tabs
Dazed & Confused tabs
Living Loving Maid tabs
Darlene tabs
No Quarter Intro tabs
The Ocean (live At Madison Square Garden) tabs
What Is And What Should Never Be tabs
Trampled Underfoot tabs
Dyer Maker tabs
The Ocean (live Version) tabs
Lz Gallows Pole tabs
In Through The Out Door Bass tabs
All My Love tabs
Dyer Maker Bass tabs
The Lemon Song (intro) tabs
Immigrant Song (how The West Was Won) tabs
Bron Y Aur Stomp Bass tabs
Custed Pie tabs
Misty Mountain Hop tabs


Guitar Tabs









All tabs are property and copyright of their owners. All tabs provided for educational purposes only. Privacy Policy, DMCA