Led Zeppelin

Livin' Lovin' Maid Tabs



More from Led Zeppelin

Led Zeppelin Tabs
Led Zeppelin Chords
Led Zeppelin Bass
Led Zeppelin Lyrics




|----------------|----------------|----------------|----------------|
|----------------|----------------|----------------|----------------|
|----------------|----------------|----------------|----------------|
|7---------------|----------------|----------------|----------------|
|0---------------|----------------|----3---3-4-5---|--------3-------|
|----------------|----------------|5-----5-------3-|--3-3-5-----5---|


|----------------|----------------|----------------|----------------|
|----------------|--------7-------|----------------|----------------|
|----------------|--6-6-6-7---6---|----------------|----------------|
|----------------|--7-7-7-7---7---|7---------------|7-7-7-7-7-7-7---|
|----------------|--7-7-7-5---7---|----------0-0-0-|0-0-0-0-0-0-0-0-|
|3-5-----3-5-----|--5-5-5-----5---|----------------|----------------|


|----------------|----------------|----------------|----------------|
|----------------|----------------|----------------|--------7-------|
|----------------|----------------|----------------|--6-6-6-7---6---|
|----------------|----------------|----------------|--7-7-7-7---7---|
|----3---3-4-5---|--------3-------|----------------|--7-7-7-5---7---|
|5-----5-------3-|--3-3-5-----5---|3-5-----3-5-----|--5-5-5-----5---|


This is a second guitar with wah that is played with the part below
it.
|----------------|----------------|----------------|----------------|
|7-------(7)\----|----------------|14--------------|(14)\-----------|
|7-------(7)\----|----------------|14--------------|(14)\-----------|
|7-------(7)\----|----------------|14--------------|(14)\-----------|
|----------------|----------------|----------------|----------------|
|----------------|----------------|----------------|----------------|
| |
|----------------|----------------|----------------|----------------|
|7-----7-7-7---7-|--7---7-7-7-7---|----------------|----------------|
|7-----7-7-7---7-|--7---7-7-7-7---|6-----6-6-6---6-|--6---6-6-6-6---|
|7-----7-7-7---7-|--7---7-7-7-7---|7-----7-7-7---7-|--7---7-7-7-7---|
|5-----5-5-5---5-|--5---5-5-5-5---|7-----7-7-7---7-|--7---7-7-7-7---|
|----------------|----------------|5-----5-5-5---5-|--5---5-5-5-5---|


The same thing goes for this part.
|----------------|----------------|----------------|----------------|
|7-------(7)\----|----------------|9---------------|----------------|
|7-------(7)\----|----------------|9---------------|----------------|
|7-------(7)\----|----------------|9---------------|----------------|
|----------------|----------------|----------------|----------------|
|----------------|----------------|----------------|----------------|
| |
|----------------|----------------|----------------|----------------|
|7-----7-7-7---7-|--7---7-7-7-7---|----------------|----------------|
|7-----7-7-7---7-|--7---7-7-7-7---|1---------------|----------------|
|7-----7-7-7---7-|--7---7-7-7-7---|2---------------|----------------|
|5-----5-5-5---5-|--5---5-5-5-5---|2---------------|----------------|
|----------------|----------------|0---------------|----------------|


|----------------|----------------|----------------|----------------|
|----------------|----------------|----------------|----------------|
|----------------|1-1-1-1-1-1-1---|----------------|----------------|
|2-2-2-2-2-2-2-2-|2-2-2-2-2-2-2-0-|----------------|----------------|
|2-2-2-2-2-2-2-2-|2-2-2-2-2-2-2-0-|----3---3-4-5---|--------3-------|
|0-0-0-0-0-0-0-0-|0-0-0-0-0-0-0-0-|5-----5-------3-|--3-3-5-----5---|


|----------------|----------------|----------------|----------------|
|----------------|--------7-------|----------------|----------------|
|----------------|--6-6-6-7---6---|----------------|----------------|
|----------------|--7-7-7-7---7---|7---------------|7-7-7-7-7-7-7---|
|----------------|--7-7-7-5---7---|----------0-0-0-|0-0-0-0-0-0-0-0-|
|3-5-----3-5-----|--5-5-5-----5---|----------------|----------------|


|----------------|----------------|----------------|----------------|
|----------------|----------------|----------------|--------7-------|
|----------------|----------------|----------------|--6-6-6-7---6---|
|----------------|----------------|----------------|--7-7-7-7---7---|
|----3---3-4-5---|--------3-------|----------------|--7-7-7-5---7---|
|5-----5-------3-|--3-3-5-----5---|3-5-----3-5-----|--5-5-5-----5---|


|----------------|----------------|----------------|----------------|
|----------------|----------------|----------------|--------7-------|
|----------------|----------------|----------------|--6-6-6-7---6---|
|7---------------|7-7-7-7-7-7-7---|----------------|--7-7-7-7---7---|
|----------0-0-0-|0-0-0-0-0-0-0-0-|----------------|--7-7-7-5---7---|
|----------------|----------------|3-5-----3-5-----|--5-5-5-----5---|


|----------------|----------------|----------------|----------------|
|----------------|----------------|----------------|--------7-------|
|----------------|----------------|----------------|--6-6-6-7---6---|
|7---------------|7-7-7-7-7-7-7---|----------------|--7-7-7-7---7---|
|----------0-0-0-|0-0-0-0-0-0-0-0-|----------------|--7-7-7-5---7---|
|----------------|----------------|3-5-----3-5-----|--5-5-5-----5---|


|----------------|----------------|----------------|----------------|
|7-------(7)\----|----------------|14--------------|(14)\-----------|
|7-------(7)\----|----------------|14--------------|(14)\-----------|
|7-------(7)\----|----------------|14--------------|(14)\-----------|
|----------------|----------------|----------------|----------------|
|----------------|----------------|----------------|----------------|
| |
|----------------|----------------|----------------|----------------|
|7-----7-7-7---7-|--7---7-7-7-7---|----------------|----------------|
|7-----7-7-7---7-|--7---7-7-7-7---|6-----6-6-6---6-|--6---6-6-6-6---|
|7-----7-7-7---7-|--7---7-7-7-7---|7-----7-7-7---7-|--7---7-7-7-7---|
|5-----5-5-5---5-|--5---5-5-5-5---|7-----7-7-7---7-|--7---7-7-7-7---|
|----------------|----------------|5-----5-5-5---5-|--5---5-5-5-5---|


|----------------|----------------|----------------|----------------|
|7-------(7)\----|----------------|9---------------|----------------|
|7-------(7)\----|----------------|9---------------|----------------|
|7-------(7)\----|----------------|9---------------|----------------|
|----------------|----------------|----------------|----------------|
|----------------|----------------|----------------|----------------|
| |
|----------------|----------------|----------------|----------------|
|7-----7-7-7---7-|--7---7-7-7-7---|----------------|----------------|
|7-----7-7-7---7-|--7---7-7-7-7---|1---------------|----------------|
|7-----7-7-7---7-|--7---7-7-7-7---|2---------------|----------------|
|5-----5-5-5---5-|--5---5-5-5-5---|2---------------|----------------|
|----------------|----------------|0---------------|----------------|


|----------------|----------------|----------------|----------------|
|----------------|----------------|----------------|----------------|
|----------------|----------------|----------------|----------------|
|7---------------|7-7-7-7-7-7-7---|----------------|----------------|
|----------0-0-0-|0-0-0-0-0-0-0-0-|----3---3-4-5---|--------3-------|
|----------------|----------------|5-----5-------3-|--3-3-5-----5---|


|----------------|----------------|----------------|----------------|
|----------------|--------7-------|----------------|----------------|
|----------------|--6-6-6-7---6---|----------------|----------------|
|----------------|--7-7-7-7---7---|7---------------|7-7-7-7-7-7-7---|
|----------------|--7-7-7-5---7---|----------0-0-0-|0-0-0-0-0-0-0-0-|
|3-5-----3-5-----|--5-5-5-----5---|----------------|----------------|


|----------------|----------------|----------------|----------------|
|----------------|----------------|----------------|--------7-------|
|----------------|----------------|----------------|--6-6-6-7---6---|
|----------------|----------------|----------------|--7-7-7-7---7---|
|----3---3-4-5---|--------3-------|----------------|--7-7-7-5---7---|
|5-----5-------3-|--3-3-5-----5---|3-5-----3-5-----|--5-5-5-----5---|

__ _ ___ __ __
1/2/ \/ \ 1/ 1.5/ / ^^^^ ^^^^^^^^^^^^
|-----------------|----------------|--------------------|----------------|
|-----------------|--------------17|----17--17--17----17|1514------------|
|-----14--1416--16|------16p14-----|--------------------|----------------|
|14/16--16--------|----------------|--------------------|----------------|
|-----------------|----------------|--------------------|----------------|
|-----------------|----------------|--------------------|----------------|
| |
|-----------------|----------------|--------------------|----------------|
|7-------(7)\-----|----------------|14------------------|(14)\-----------|
|7-------(7)\-----|----------------|14------------------|(14)\-----------|
|7-------(7)\-----|----------------|14------------------|(14)\-----------|
|-----------------|----------------|--------------------|----------------|
|-----------------|----------------|--------------------|----------------|
| |
|----------------|----------------|---------------------|----------------|
|7-----7-7-7---7-|--7---7-7-7-7---|---------------------|----------------|
|7-----7-7-7---7-|--7---7-7-7-7---|6-----6-6-6---6------|--6---6-6-6-6---|
|7-----7-7-7---7-|--7---7-7-7-7---|7-----7-7-7---7------|--7---7-7-7-7---|
|5-----5-5-5---5-|--5---5-5-5-5---|7-----7-7-7---7------|--7---7-7-7-7---|
|----------------|----------------|5-----5-5-5---5------|--5---5-5-5-5---|

__ _
1/2/ \/ \
|-----------------|----------------|----------------|-------------------|
|-----------------|----------------|----------------|-------------------|
|-----14--1416--16|------16p14-----|9x10x11x12x13x14|x15x16x17-18-18--16|
|14/16--16--------|----------------|----------------|-------------------|
|-----------------|----------------|----------------|-------------------|
|-----------------|----------------|----------------|-------------------|
| |
|-----------------|----------------|----------------|-------------------|
|7-------(7)\-----|----------------|9---------------|-------------------|
|7-------(7)\-----|----------------|9---------------|-------------------|
|7-------(7)\-----|----------------|9---------------|-------------------|
|-----------------|----------------|----------------|-------------------|
|-----------------|----------------|----------------|-------------------|
| |
|----------------|----------------|----------------|--------------------|
|7-----7-7-7---7-|--7---7-7-7-7---|----------------|--------------------|
|7-----7-7-7---7-|--7---7-7-7-7---|1---------------|--------------------|
|7-----7-7-7---7-|--7---7-7-7-7---|2---------------|--------------------|
|5-----5-5-5---5-|--5---5-5-5-5---|2---------------|--------------------|
|----------------|----------------|0---------------|--------------------|

_
1/ ^^^^^^^^^^^^^^^^^^^^^^^^^^^^^
|----------------|----------------|
|----------------|----------------|
|17--------------|----------------|
|----------------|----------------|
|----------------|----------------|
|----------------|----------------|
| |
|----------------|----------------|----------------|----------------|
|----------------|----------------|----------------|----------------|
|----------------|1-1-1-1-1-1-1---|----------------|----------------|
|2-2-2-2-2-2-2-2-|2-2-2-2-2-2-2-0-|----------------|----------------|
|2-2-2-2-2-2-2-2-|2-2-2-2-2-2-2-0-|----3---3-4-5---|--------3-------|
|0-0-0-0-0-0-0-0-|0-0-0-0-0-0-0-0-|5-----5-------3-|--3-3-5-----5---|


|----------------|----------------|----------------|----------------|
|----------------|--------7-------|----------------|----------------|
|----------------|--6-6-6-7---6---|----------------|----------------|
|----------------|--7-7-7-7---7---|7---------------|7-7-7-7-7-7-7---|
|----------------|--7-7-7-5---7---|----------0-0-0-|0-0-0-0-0-0-0-0-|
|3-5-----3-5-----|--5-5-5-----5---|----------------|----------------|


|----------------|----------------|----------------|----------------|
|----------------|--------7-------|----------------|----------------|
|----------------|--6-6-6-7---6---|----------------|----------------|
|----------------|--7-7-7-7---7---|7---------------|7-7-7-7-7-7-7---|
|----------------|--7-7-7-5---7---|----------0-0-0-|0-0-0-0-0-0-0-0-|
|3-5-----3-5-----|--5-5-5-----5---|----------------|----------------|


|----------------|----------------|
|----------------|--------7-------|
|----------------|--6-6-6-7---6---|
|----------------|--7-7-7-7---7---|
|----------------|--7-7-7-5---7---|
|3-5-----3-5-----|--5-5-5-----5---|


|----------------|----------------|----------------|----------------|
|7-------(7)\----|----------------|14--------------|(14)\-----------|
|7-------(7)\----|----------------|14--------------|(14)\-----------|
|7-------(7)\----|----------------|14--------------|(14)\-----------|
|----------------|----------------|----------------|----------------|
|----------------|----------------|----------------|----------------|
| |
|----------------|----------------|----------------|----------------|
|7-----7-7-7---7-|--7---7-7-7-7---|----------------|----------------|
|7-----7-7-7---7-|--7---7-7-7-7---|6-----6-6-6---6-|--6---6-6-6-6---|
|7-----7-7-7---7-|--7---7-7-7-7---|7-----7-7-7---7-|--7---7-7-7-7---|
|5-----5-5-5---5-|--5---5-5-5-5---|7-----7-7-7---7-|--7---7-7-7-7---|
|----------------|----------------|5-----5-5-5---5-|--5---5-5-5-5---|


|----------------|----------------|----------------|----------------|
|7-------(7)\----|----------------|9---------------|----------------|
|7-------(7)\----|----------------|9---------------|----------------|
|7-------(7)\----|----------------|9---------------|----------------|
|----------------|----------------|----------------|----------------|
|----------------|----------------|----------------|----------------|
| |
|----------------|----------------|----------------|----------------|
|7-----7-7-7---7-|--7---7-7-7-7---|----------------|----------------|
|7-----7-7-7---7-|--7---7-7-7-7---|1---------------|----------------|
|7-----7-7-7---7-|--7---7-7-7-7---|2---------------|----------------|
|5-----5-5-5---5-|--5---5-5-5-5---|2---------------|----------------|
|----------------|----------------|0---------------|----------------|


|----------------|----------------|----------------|----------------|
|----------------|----------------|----------------|----------------|
|----------------|----------------|----------------|----------------|
|7---------------|7-7-7-7-7-7-7---|----------------|----------------|
|----------0-0-0-|0-0-0-0-0-0-0-0-|----3---3-4-5---|--------3-------|
|----------------|----------------|5-----5-------3-|--3-3-5-----5---|


|----------------|----------------|----------------|----------------|
|----------------|--------7-------|----------------|----------------|
|----------------|--6-6-6-7---6---|----------------|----------------|
|----------------|--7-7-7-7---7---|----------------|----------------|
|----------------|--7-7-7-5---7---|----3---3-4-5---|--------3-------|
|3-5-----3-5-----|--5-5-5-----5---|5-----5-------3-|--3-3-5-----5---|


|----------------|----------------|----------------|----------------|
|----------------|--------7-------|----------------|----------------|
|----------------|--6-6-6-7---6---|----------------|----------------|
|----------------|--7-7-7-7---7---|----------------|----------------|
|----------------|--7-7-7-5---7---|----3---3-4-5---|--------3-------|
|3-5-----3-5-----|--5-5-5-----5---|5-----5-------3-|--3-3-5-----5---|


|----------------|----------------|
|----------------|--------7-------|
|----------------|--6-6-6-7---6---|
|----------------|--7-7-7-7---7---|
|----------------|--7-7-7-5---7---|
|3-5-----3-5-----|--5-5-5-----5---|



Get this song at amazon.com      Ebay     Ringtones Ringtones  


Learn to play: Songwriting, Piano, Harmonica, Guitar
Also available at Muzikum: Led Zeppelin - Livin' Lovin' Maid lyrics

Related Led Zeppelin Tabs

Since Ive Been Loving You Live tabs
Living Loving Maid tabs
Hots On For Nowhere tabs
The Rover tabs
Stairway To Heaven (absolutely Correct) tabs
Time Of Dying tabs
The Girl I Love She Got Long Black Wavy Hair tabs
Dazed And Confused Tsrts tabs
Bring It On Home...distorted Part tabs
Communication Breakdown tabs
Dazed And Confused Live tabs
Travelling Riverside Blues Bass tabs
The Wanton Song tabs
Hey Lady tabs
Ocean, The tabs
Houses Of The Holy tabs
The Crunge tabs
What Is And What Should Never Be Solo tabs
The Girl I Love tabs
Thank You tabs


Guitar Tabs









All tabs are property and copyright of their owners. All tabs provided for educational purposes only. Privacy Policy, DMCA