Led Zeppelin

Lemon Song Bass Solo Bass Tabs



More from Led Zeppelin

Led Zeppelin Tabs
Led Zeppelin Chords
Led Zeppelin Bass
Led Zeppelin Lyrics




Standard tunning Starts at 2:59

G|--------------|-9-7-7---7-------7--|--------------------|-9-8-7---------------------|
D|---6-7-8-9----|-----------7-8-9----|---6-6--7-7-8---9---|-------0-9-0--7-6----------|
A|-7---------7--|-------------------7|-7----------------10|------------------7-----7--|
E|-------------7|--------------------|--------------------|--------------------6-7---7|

G|----------------------------------------|
D|-------------------------------5--6--7--|
A|-------4----5----6-------0--7----------7|
E|-5---5----5---5-------------------------|



Get this song at amazon.com      Ebay     Ringtones Ringtones  


Learn to play: Songwriting, Piano, Harmonica, Guitar
More Led Zeppelin lyrics available at Muzikum

Related Led Zeppelin Bass Tabs

Dazed & Confused bass
Hart Breaker bass
Hot Dog bass
When The Levee Breaks bass
The Crunge bass
Crunge bass
Dazed And Confuzed bass
Moby Dick - 110% Correct Without A Doubt bass
Kashmir bass
Hots On For Nowhere bass
Bron-y-aur Stomp (correct) bass
In The Light 4 String bass
Good Times Bad Times bass
Friends bass
Celebration Day bass
Nobody's Fault But Mine bass
Achilles Last Stand bass
Over The Hills And Far Away bass
Stairway To Heaven bass
Houses Of The Holy bass


Guitar Tabs









All tabs are property and copyright of their owners. All tabs provided for educational purposes only. Privacy Policy, DMCA