Led Zeppelin

Led Zeppelin 3 Album Tabs



More from Led Zeppelin

Led Zeppelin Tabs
Led Zeppelin Chords
Led Zeppelin Bass
Led Zeppelin Lyrics



this is the whole album
the songs are (in order):
Immigrant Song
Friends
Celebration Day
Since I've Been Loving You
Out on the Tiles
Gallows Pole
Tangerine
Thats the Way
Bron-Y-Aur Stomp
Hats Off to Roy Harper
__________________________________________________________________________

Immigrant Song:
__________________________________________________________________________
Gtr I
S E S S S E S E S S S E S 7x E S S S E S E S S E S S W
|---||---------------------------||-------------------------||------|
|---||o-------------------------o||-------------------------||------|
|---||---------------------------||-------------------2-----||------|
|---||--------4-----------4------||-------4-----------2-0-0-||-2----|
|---||o-------------------------o||---------------0-0-0-0-0-||-2----|
|-x-||--2-2-2---2-0-2-2-2---2-0--||-2-2-2---2-0-2-------0-0-||-0----|


PM--| PM--| PM------| PM--|
+H Q Q E S S S E S E S S S S S S E S S S E S E S S S S S S
|--------------|---------------------------|---------------------------|
|--------0--2--|---------------------------|---------------------------|
|--------1--2--|---------------------------|---------------------------|
|-(2)----2--2--|-------4-----------4-------|-------4-----------4-------|
|-(2)----2--0--|---------------------------|---------------------------|
|-(0)----0-----|-2-2-2---2-0-2-2-0---2-2-0-|-2-2-2---2-0-2-2-0---2-2-0-|


PM--| PM------| PM--| PM| PM----| PM|
E S S S E S E S S S S S S E S S S S e Q E. S E E S E S E E S E S
|---------------------------|---------------------------|---------------------|
|---------------------------|---------------2----2------|---------------------|
|---------------------------|---------------4b6--4b6p=3-|---------------------|
|-------4-----------4-------|-------4-------------------|-----4---------4-----|
|---------------------------|---------------------------|---------------------|
|-2-2-2---2-0-2-2-2---2-2-0-|-2-2-2---2-2---------------|-2-2---2-0-2-2---2-0-|
|
| W E S S S S S S Q Q W
|---------------------------|---------------------------|---------------------|
|---------------------------|---------------5----5-----|---------------------|
|---------------------------|---------------7b9--7b9---|---------------------|
|---------------------------|-------4-------------------|---------------------|
|---------------------------|---------------0-----------|---------------------|
|---------------------------|-2-2-2---2S4-4-------------|---------------------|


PM--| PM--|
E S S S E S E S S E S S W +H Q Q
|-------------------------|----------|---------------|
|-------------------------|----------|--------0--2---|
|-------------------2-----|----------|--------1--2---|
|-------4-----------2-----|-2--------|-(2)----2--2---|
|---------------0-0-0-0-0-|-2--------|-(2)----2--0---|
|-2-2-2---2-0-2-------0-0-|-0--------|-(0)----0------|


PM--| PM--------| PM------|
E S S S E S E S S S E S E S S S E S E S S S E S
|-------------------------|-------------------------||
|-------------------------|-------------------------||
|-------------------------|-------------------------||
|-------4-----------4-----|-------4-----------4-----||
|-------x---0-------x-----|-------x-----------x---0-||
|-2-2-2---2---2-2-2---2-0-|-2-2-2---2-0-2-2-2---2---||


Chorus
E S S S S S S +S S S S S S E
|-------------------------------|
|-------------------------------|
|-2-2-2-2-2-2-2-(2)-2-2-2-2-2-2-|
|-2-2-2-2-2-2-2-(2)-2-2-2-2-4-2-|
|-0-0-0-0-0-0-0-(0)-3-4-4-0-0-0-|
|-------------------------------|


E S S E S S +S S S S S S S S
|-------------------------------|
|-------------------------------|
|-4-4-4-4-4-4-(4)-4-4-4-4-4-4-5-|
|-4-4-4-4-4-4-(4)-4-4-4-4-4-4-5-|
|-2-2-2-2-2-2-(2)-2-2-2-2-2-2-3-|
|-------------------------------|


To Coda
E S S E S S +S S S S S S S S +S S S S S S S S q E. S
|--------------------------------|------------------------------|
|--------------------------------|-----0------------------------|
|-5-5-5-5-5-5-(5)-5-5-5-5-5-5--0-|-(0)-----5-7b8-7-5---5--------|
|-5-5-5-5-5-5-(5)-5-5-5-5-5-5----|-----5-7-----------7----------|
|-3-3-3-3-3-3-(3)-3-3-3-3-3-3-/7-|-(7)--------------------------|
|--------------------------------|---------------------------x--|


D.S. al Coda
&
E S S S E S E S S S E S 5x E S S S E S E S S E S S
||---------------------------||-------------------------|
||o-------------------------o||-------------------------|
||---------------------------||---------------2-2-2-----|
||--------4-----------4------||-------4-------2-2-2-----|
||o-------------------------o||---------------0-0-0-0-0-|
||--2-2-2---2-0-2-2-2---2-0--||-2-2-2---2-0-2-------0-0-|


E S S S E S E S S S E S
||----------------------------||
||o--------------------------o||
||----------------------------||
||--------4-----------4-------||
||o--------------------------o||
||--2-2-2---2-0-2-2-2---2-0---||


Verse 3
S S S S S S S S S S E Q 3x
||----------------------------||-|
||o-----------------------3--o||-|
||------------------------3---||-|
||--x-x-x-x-x-x-x-x-x-x-x-0---||-|
||o-4-4-x-x-4-x-x-4-x-x-x----o||-|
||--2-2-x-x-2-x-x-2-x-x-x-3---||-|


PM| PM| PM
E S S S S S S S S E Q 4x S S S S S S S S +S S E Q
||--------------------------||-----------------------------|
||o---------------------3--o||-----------------------------|
||----------------------3---||-----------------------------|
||----------------x-x---0---||-4-4-x-x-4-4-4-4-(4)-4-4-4---|
||o-4-----4-----4-x-x-0----o||-4-4-x-x-4-4-4-4-(4)-4-4-4---|
||--2-2-2-2-2-2-2-x-x-0-3---||-2-2-x-x-2-2-2-0-(0)-0-2-0---|


Guitar Solo
~~~
W +Q Q +Q +S E S
|----------|----------------------|
|----------|----------------------|
|----------|----------------------|
|-4--------|-(4)--2--(2)--(2)-2-4-|
|-4--------|-(4)------------------|
|-2--------|-(2)------------------|


~~~~~~~~~~~~~~~~~
S S E E S S +H +Q +S E S S S S S S S S S
|--------------------|------------------------------|
|--------------------|------------------------------|
|-0h3p0-0------------|------------2-4-2-4p2---2---2-|
|---------4-4-(4)----|-(4)--(4)-4-----------4---4---|
|--------------------|------------------------------|
|--------------------|------------------------------|


E. S Q +Q +S E. S +S S S S S S S S S S S +E S S
|-----5-----------------5--|-----------------------------------------|
|--------------------------|------------------------------------5----|
|-4b6---4b6===(4)--(4)r----|-4b6r(4)p2---2h4p2---2---2-4b6==(4)---4r-|
|--------------------------|-----------4-------4---4-----------------|
|--------------------------|-----------------------------------------|
|--------------------------|-----------------------------------------|


|--3--|
Q +S S E S +S S S S S S S S
|-------------------------------------|
|-----------5-------------------------|
|-4b6===(4)---4-4r(4)p2---4p2---2-----|
|-----------------------4-----4---4p==|
|-------------------------------------|
|-------------------------------------|


~~~~~~~~~~~~
|-3-| |-3-| |-3--|
S S S S S S S S S S S S S S +S S S S +E E E E E +Q +E E
|---------------------------------------|----------------------------|
|---------------------------------------|----------------------------|
|---------------------------------------|----------------------------|
|-2---0h2p0---0-------------------------|----------------------------|
|---4-------4---4p2p0---0h2p0-(0)---0---|----------------------------|
|---------------------4-----------0---0-|-(0)-0-3-2-2-(2)--(2)s(11)-|


|-3-|
E. S +S E a S +E E S S S S S
|--------------------------------|
|--------------------------------|
|--------------------------------|
|--------------------------------|
|--------------------------------|
|----2-(2)-5-6s7-(7)S5-2-5p2h5p2p|


~
S S E Q +Q Q E S S S S S S S S S S S S S S
|----------------------|--------------------------------|
|----------------------|--------------------------------|
|----------------------|-----------1-1-1-1-2-2-2-4-4-4--|
|----------------------|---4-4-4-4----------------------|
|----------------------|--------------------------------|
|-0-0-2-2--(2)s=(12)--|--------------------------------|


|-3-|
E.T T T T T T T T T T S S S S E E E
|-------------------------------------|
|-4-----------------------------------|
|-4p2p1h4p2p1h4p2p1h4p2p1h4p2p1-4-2-1-|
|-------------------------------------|
|-------------------------------------|
|-------------------------------------|


|-3-| |-3-| |--3--|
S S S S Q +E S S +S S S S S E E E E E S S H
|----------------------------------|--------------------|
|----------------------------------|--------------------|
|---1-2-4-4b6r=(4)-2-4-(4)p2h4p2p1-|---1-2-4-2-4-2-1----|
|-4--------------------------------|-4------------------|
|-0--------------------------------|--------------------|
|----------------------------------|--------------------|


|-3-| |-3--| |-3-| |-3--| |3| |----6-----| |----6----| |----6----|
E E E E E E E E E +E E E E Q +S S S S S S S S S S S S S S S S S S
|----------------------------|-------------------------------------------|
|----------------------------|-------------------------------------------|
|-1-2-4-4-/6-6-6-6-8-(8)-8-9-|-9-9-(9)p7p6h9p7p6h9p7p6h9p7p6h9p7p6h9p7p6h|
|----------------------------|-------------------------------------------|
|----------------------------|-------------------------------------------|
|----------------------------|-------------------------------------------|


|-3-|
S S S S S S E +E E E E E
|-------------------------------|
|-------------------------------|
|-9p7p6---6-7-9b11==(9)r9-7-9p7-|
|-------9-----------------------|
|-------------------------------|
|-------------------------------|


|-3-| |-3-| |---3---| |-3-|
S S E +Q +Q E E E E E E E E S S E E E E E
|-----------------------|----------------------------|
|-----0-(0)--(0)--------|-7---7-9-10-9h10p8---7-9-10-|
|-9p7p6-(6)--(6)--6-7-9-|---9---------------9--------|
|-----------------------|----------------------------|
|-----------------------|----------------------------|
|-----------------------|----------------------------|


~~~~~~~~~~~~
a Q +Q +Q Q
|---------------------------|
|-10s12--(12)b14--(12)--x---|
|---------------------------|
|---------------------------|
|---------------------------|
|---------------------------|


S E S S S S S +S S E S E S
|---14-----14-14-14-14--14-----(14)--14-14----14-14----14-|
|---14-----14-14-14-14--14-----(14)--14-14----14-14----14-|
|---16b18==16-16-16-16r-16b18==(16)r----16b18----16b18----|
|---------------------------------------------------------|
|---------------------------------------------------------|
|---------------------------------------------------------|


E S S +S S S S S S S S S S S S
|-14----14-14-----(14)--14-14-----14-14--14-----14-14--14-----14-14-14--|
|-14----14-14-----(14)--14-14-----14-14--14-----14-14--14-----14-14-14--|
|-16b18----16b18==(16)r----16b18=====16r-16b18==16-16r-16b18==16-16-16r-|
|-----------------------------------------------------------------------|
|-----------------------------------------------------------------------|
|-----------------------------------------------------------------------|


S E S E S S +S S E S S E
|----------14--14-----14--14-----(14)-14--14-----14--14-14------|
|----------14--14-----14--14-----(14)-14--14-----14--14-14------|
|---16b18==16r-16b18==16r-16b18==(16)-16r-16b18==16r-16-16pb18==|
|---------------------------------------------------------------|
|---------------------------------------------------------------|
|---------------------------------------------------------------|


+S E S S S S S +S S E S S E
|-(14)--14-----14--14------------------------14--14-----14--14-----14--|
|-(14)--14-----14--14------------------------14--14-----14--14-----14--|
|-(16)r-16b18==16r-16b18==16-16r-16b18==(16)-16r-16b18==16r-16b18==16r-|
|----------------------------------------------------------------------|
|----------------------------------------------------------------------|
|----------------------------------------------------------------------|


S E. +Q +E S S S S S S
|-14-17b19==(17)--(17)r-17-16-14---------14----|
|-14-----------------------------17b17.5----17-|
|----------------------------------------------|
|----------------------------------------------|
|----------------------------------------------|
|----------------------------------------------|


S S S S S S S S S S S S S S S S
|-------------------------------------------------|
|-14----------------------14----------------------|
|----17-16p14----14-16-17----17-16-14----16p14----|
|-------------16----------------------16-------16-|
|-------------------------------------------------|
|-------------------------------------------------|


S S e S S S S S S S S S S S S
|-------------------------------------------------|
|-------------14----------------------------------|
|-14----14-17----17-16p14h16p14----16p14----16p===|
|----16-------------------------16-------16-------|
|-------------------------------------------------|
|-------------------------------------------------|


S S S S S S S S S S S S S S S S
|------------------------------------------------------|
|------------------------------------------------------|
|-14----14b14.5-------------------------16p14----14----|
|----16---------16-14-16p14----14-15-16-------16----16-|
|---------------------------16-------------------------|
|------------------------------------------------------|


S S S S S S S S S a E S T T T T E
|---------------------------------------------------|
|----------16-16-17------16-17s16----16h17p16----16-|
|-14-18-18------------18----------18----------18----|
|---------------------------------------------------|
|---------------------------------------------------|
|---------------------------------------------------|


E E S S S S S S S S S S S S
|-19-19-16h19p16----16----------------------|
|----------------17----17-16----16----------|
|----------------------------18----18-16s14-|
|-------------------------------------------|
|-------------------------------------------|
|-------------------------------------------|


|--3--|
S S S S S S S S S S S S S S S S S
|----------------------------------------------------|
|-------------14-------------------------------------|
|----14-16-17----17p16p14----16p14----16p14----14----|
|-16----------------------16-------16-------16----16-|
|----------------------------------------------------|
|----------------------------------------------------|


|3-|
E Q S E S S E S S E S
|------------------------------------------------------------|
|------------------------------------------------------------|
|-14-14b14.5----14b14.5-14b14.5---14b14.5==14r-------14b14.5-|
|------------16--------------------------------16-16---------|
|------------------------------------------------------------|
|------------------------------------------------------------|


S S +E +E E E S S +E S S
|-------------------------------------------------------|
|-------------------------------------------------------|
|---14b16==(14)-(14)----14b16==14r-14-(14)----14pb16====|
|--------------------16--------------------16-----------|
|-------------------------------------------------------|
|-------------------------------------------------------|


~~~~~~~~~~~~~
+S S E +S S E S S E a S S S S
|------------------------------------------------|
|------------------------------------------------|
|-(14)-14r-14-(14)-14-14-14-14-------------------|
|------------------------------16-------14-16p14-|
|---------------------------------14s16----------|
|------------------------------------------------|


~~~~~~~~~
|---3---| |-3-|
S E. +E E H +Q +Q E E E S S S S S
|----------------------------|-------------------------------------|
|----------------------------|-------------------------------------|
|------------------13b15=====|=(13)--(13)r--11b13-11-9-11p9-11p9p7-|
|----14--(14)s[12]-----------|-------------------------------------|
|-16-------------------------|-------------------------------------|
|----------------------------|-------------------------------------|


|-3-| |-3--|
S S S S S S S S S E S S S S S S S
|-------------------------------------|
|-----------0-------------------------|
|-9-6-7-5-6---/4-4-2-2------------0-4p|
|----------------------4-4-2p---------|
|-----------------------------4p0-----|
|-------------------------------------|


~~~
|-3--| |3-| |-3-| |3| |--3--|
S S S S S E. +Q +E E E E.S +E S S S S E Q E E S S
|---------------------------|---------------------4-7-4---|
|---------------------------|---------4h5p4---4-5-0-----5-|
|-1---1-------------------1-|-4s6-(6)-------6-------------|
|---2---2p1-2--(2)--(2)-2---|-----------------------------|
|---------------------------|-----------------------------|
|---------------------------|-----------------------------|


~~~~~~
S S S S S S S S S S S T T S S S S S E S +H.
|-4---------------------------------|----------------|
|---5p4---4-------------------------|----------------|
|-------6---6s4-2h4p2---4p2---------|----------------|
|---------------------4-----4-4p2h4-|-1-2-4-(4)------|
|-----------------------------------|----------------|
|-----------------------------------|----------------|


S E S +E E +H S E S E E +H
|--------------------|------------------|
|--------------------|------------------|
|-----------2-(2)----|---------5-(5)----|
|-1-2-4-(4)-2-(2)----|-1-2-3s5-5-(5)----|
|-----------0-(0)----|---------3-(3)----|
|--------------------|------------------|


Outro
S E S E E +H S E S +E E +Q. E E S S S E S E S S S E S
|------------------|-------------------------||--------------------------|
|------------------|-------------------------||o-------------------------|
|---------7-(7)----|-----------/11-(11)------||--------------------------|
|-1-2-3s5-7-(7)----|-1-2-4-(4)---------------||--------4-----------4-----|
|---------5-(5)----|------------/9--(9)---9-||o-------------------------|
|------------------|-------------0--(0)------||--2-2-2---2-0-2-2-2---2-0-|


E S S S E S q Q E S S S E S q Q 3x E S S S E S q Q
|--------------------||-||---------------------||--------------------*|
|----------------3--o||-||o----------------3--o||--------------------*|
|----------------3---||-||-----------------3---||--------------------*|
|-------4--------0---||-||--------4--------0---||-------4------------*|
|-------------------o||-||o-------------------o||--------------------*|
|-2-2-2---2-0-2--3---||-||--2-2-2---2-0-2--3---||-2-2-2---2-0-2------*|
_______________________________________________________________________

Friends:
_______________________________________________________________________


Repeat twice


e|--0--3--0--2--0------0--2--0--2--0--2-----0--0--0--0----0--3--0--2--0------
b|--0--3--0--2--0------0--2--0--2--0--2-----0--0--0--0----0--3--0--2--0------
g|--0---------------------------------------0--0--0--0-----------------------
d|--0---------------------------------------0--0--0--0-----------------------
a|--0---------------------------------------0--0--0--0-----------------------
E|--0---------------------------------------0--0--0--0-----------------------


e|--0--2--0--2--0--2----0--0--0--0----0--3--0--2--0----0--2--0--2--0--2------
b|--0--2--0--2--0--2----0--0--0--0----0--3--0--2--0----0--2--0--2--0--2------
g|----------------------0--0--0--0-------------------------------------------
d|----------------------0--0--0--0-------------------------------------------
a|----------------------0--0--0--0-------------------------------------------
E|----------------------0--0--0--0-------------------------------------------


e|--0--0--0--0----0--3--0--2--0----0-----------------------------------------|
b|--0--0--0--0----0--3--0--2--0----0-----------------------------------------|
g|--0--0--0--0---------------------0-----------------------------------------|
d|--0--0--0--0---------------------0-----------------------------------------|
a|--0--0--0--0---------------------0--------3-X---2-X---5-X---4X---7X--------|
E|--0--0--0--0---------------------0--------3-X---2-X---5-X---4X---7X--------|


Rythym figure 2:



e|--0-------0--0--0--0--0--0--0--0--0--0----0--0--0--0--0--0--0--0--0--0--0--0
b|--0-------0--0--0--0--0--0--0--0--0--0----5--5--5--5--3--3--3--3--3--3--3--3
g|--0-------0--0--0--0--0--0--0--0--0--0--------------------------------------
d|--0-------0--0--0--0--0--0--0--0--0--0----3--3--3--3--1--1--1--1--1--1--1--1
a|--0-------0--0--0--0--0--0--0--0--0--0----0--0--0--0--0--0--0--0--0--0--0--0
E|--0-------0--0--0--0--0--0--0--0--0--0----0--0--0--0--0--0--0--0--0--0--0--0


e|--0--0--0--0--0--0--0--0--0--0----0--0--0--0--0--0--0--0--0--0--0--0--0--0-
b|--3--3--3--3--3--3--3--3--3--3----7--7--7--7--5--5--5--5--5--5--5--5--5--5-
g|---------------------------------------------------------------------------
b|--5--5--5--5--5--5--5--5--5--5----5--5--5--5--3--3--3--3--3--3--3--3--3--3-
a|--0--0--0--0--0--0--0--0--0--0----0--0--0--0--0--0--0--0--0--0--0--0--0--0-
E|--0--0--0--0--0--0--0--0--0--0----0--0--0--0--0--0--0--0--0--0--0--0--0--0-


e|--0--0--0--0--0--0--0----0--0--0--0--0--0--0--0--0--0--0--0--0--0--0--0--0-
b|--5--5--5--5--5--5--5----5--5--5--5--7--7--7--7--7--7--7--7--7--7--7--7--7-
g|---------------------------------------------------------------------------
d|--3--3--3--3--3--3--3----3--3--3--3--5--5--5--5--5--5--5--5--5--5--5--5--5-
a|--0--0--0--0--0--0--0----0--0--0--0--0--0--0--0--0--0--0--0--0--0--0--0--0-
E|--0--0--0--0--0--0--0----0--0--0--0--0--0--0--0--0--0--0--0--0--0--0--0--0-

e|--0--0--0--0--0---0--0--0--0--0--0--0--|
b|--7--7--7--7--7---3--3--3--3--5--5--5--|
g|---------------------------------------|
d|--5--5--5--5--5---1--1--1--1--3--3--3--|
a|--0--0--0--0--0---0--0--0--0--0--0--0--|
E|--0--0--0--0--0---0--0--0--0--0--0--0--|

Rythym Figure 3:


e|--0-------0--0--0--0--0--0--0--0--0--0----0--0--0--0--0--0--0--0--0--0--0--0
b|--0-------0--0--0--0--0--0--0--0--0--0----5--5--5--5--3--3--3--3--3--3--3--3
g|--0-------0--0--0--0--0--0--0--0--0--0--------------------------------------
d|--0-------0--0--0--0--0--0--0--0--0--0----3--3--3--3--1--1--1--1--1--1--1--1
a|--0-------0--0--0--0--0--0--0--0--0--0----0--0--0--0--0--0--0--0--0--0--0--0
E|--0-------0--0--0--0--0--0--0--0--0--0----0--0--0--0--0--0--0--0--0--0--0--0

e|--0--0--0--0--0--0--0--0--0--0----0--0--0--0--0--0--0--0--0--0--0--0-------
b|--3--3--3--3--3--3--3--3--3--3----5--5--5--5--7--7--7--7--9--9--9--9-------
g|---------------------------------------------------------------------------
b|--1--1--1--1--1--1--1--1--1--1----3--3--3--3--5--5--5--5--7--7--7--7-------
a|--0--0--0--0--0--0--0--0--0--0----0--0--0--0--0--0--0--0--0--0--0--0-------
E|--0--0--0--0--0--0--0--0--0--0----0--0--0--0--0--0--0--0--0--0--0--0-------


e|--0--0--0--0--0--0--0--0-|
b|--3--3--3--3--5--5--5--5-|
g|-------------------------|
d|--1--1--1--1--3--3--3--3-|
a|--0--0--0--0--0--0--0--0-|
E|--0--0--0--0--0--0--0--0-|

-* Lyrics and Guitar *-



(Rythym Fig. 1)
(Rythym Fig. 2)

Bright light almost blinding
Black night still there shining
I can't stop; keep on climbing
Looking for what I knew

(Rythym Fig. 2)

Had a friend she once told me,
"You got love, you ain't lonley,"
Now she's gone and left me only
Looking for what I knew

(Rythym Fig. 3)
(Rythym Fig. 1)
Mmm, I'm tellin' you now,
The greatest thing you ever can do now
Is trade a smile with someone who's blue now
It's very easy just


(Rythym Fig. 2)
Met a man on the roadside crying
Without a friend there's no denying
Your incomplete there'll be no finding
Looking for what you knew


(Rythym Fig. 2)
So anytime somebody needs you
Don't let 'em down although it grieves you
Some day you'll need someone like they do
Looking for what you knew


(Rythym Fig. 3)
(Rythym Fig. 1)
Mmm, I'm tellin' you now
The greatest thing you ever can do now
Is trade a smile with someone who's blue now
It's very easy just


(Rythym Fig. 2)
(Rythym Fig. 2)
_________________________________________________________________________

Celebration Day:
_________________________________________________________________________

| = not a standard bar line; just used to separate music
~ = vibrato or held note
x = percussive note with no pitch; muted note
. = staccato; mute the note immediately after striking it
h = hammer on
p = pull off
s = slide
o _
o / repeat sign (always look for these!)

[Riff 1]

A7 (play this rapidly) (play this rapidly)
e:----------------9--9--9--9--9--9--9--|--------------------------------|
B:----------------8--8--8--8--8--8--8--|-----------5--5--5--5--5--5--5--|
G:o----------2----9--9--9--9--9--9--9--|-----------6--6--6--6--6--6--6-o|
D:o------------------------------------|--5--------5--5--5--5--5--5--5-o|
A:--0--3--0----------------------------|-----3--0-----------------------|
E:-------------------------------------|--------------------------------|

[Riff 2]
C G Bb F
e:--0-0-0-0-0-0-0--3-3-3-3-3-3-3--1-1-1-1-1-1-1--1-1-1-1-1-1-1---------------|
B:--1-1-1-1-1-1-1--3-3-3-3-3-3-3--3-3-3-3-3-3-3--1-1-1-1-1-1-1---------------|
G:--0-0-0-0-0-0-0--0-0-0-0-0-0-0--3-3-3-3-3-3-3--2-2-2-2-2-2-2---------------|
D:--2-2-2-2-2-2-2--0-0-0-0-0-0-0--3-3-3-3-3-3-3--3-3-3-3-3-3-3---------------|
A:--3-3-3-3-3-3-3--2-2-2-2-2-2-2--1-1-1-1-1-1-1--3-3-3-3-3-3-3---------------|
E:-----------------3-3-3-3-3-3-3-----------------1-1-1-1-1-1-1---------------|

C G Bb F E
e:--0-0-0-0-0-0-0--3-3-3-3-3-3-3--1-1-1-1-1-1-1---1-1-1-1-1------------------|
B:--1-1-1-1-1-1-1--3-3-3-3-3-3-3--3-3-3-3-3-3-3---1-1-1-1-1------------------|
G:--0-0-0-0-0-0-0--0-0-0-0-0-0-0--3-3-3-3-3-3-3---2-2-2-2-2-1-1-1-1-1--------|
D:--2-2-2-2-2-2-2--0-0-0-0-0-0-0--3-3-3-3-3-3-3---3-3-3-3-3-2-2-2-2-2--------|
A:--3-3-3-3-3-3-3--2-2-2-2-2-2-2--1-1-1-1-1-1-1---3-3-3-3-3-2-2-2-2-2--------|
E:-----------------3-3-3-3-3-3-3------------------1-1-1-1-1------------------|

Song Progression:

[Riff 1] x2

With [Riff 1]:

Her face is cracked from smiling,
all the fears that she's been hiding,
and it seems that pretty soon
evr'ybody's gonna know.

And her voice is sore from shouting,
cheering winners who are losing,
and she wonders if their days are few
and soon they'll have to go.

[Riff 1] once more, then

With [Riff 2]: (chords shown here for reference)

C G
My, my, my, I'm so happy,
Bb F
I'm gonna join the band.
C G
We are gonna dance and sing in celebration,
Bb F E
we are in the promised land.

With [Riff 1]:

She hears them talk of new ways
to protect the home she lives in,
Then she wonders what it's all about
when they break down the door.
Her name is Brown or White or Black;
you know her very well.
You hear her cries of mercy
as the winners toll the bell.

With [Riff 2]:

My, my, my, I'm so happy,
I'm gonna join the band.
We are gonna sing and dance in celebration,
we are in the promised land.

[Solo]:


|------------------------------------|-----------------------------------|
|-15b17--15b17--15b17r15p13-15b17-15-|-(15)-----------13-15p13---15p13---|
|------------------------------------|-----12---12-14----------14-----14-|
|------------------------------------|-----------------------------------|
|------------------------------------|-----------------------------------|
|------------------------------------|-----------------------------------|

|------------15------------|-------------8p5----------|
|-13---15-13----15b17-15b17|-(17)-15b17-----8p5-8p5---|
|--------------------------|-----------------------7p5|
|--------------------------|--------------------------|
|--------------------------|--------------------------|
|--------------------------|--------------------------|

|----------------------|------------------------|----------------8|
|----------------------|------------------------|-----------------|
|-7b9-7b9-7b9r7p5-7b9r7|-(17)------5-7p5-5-7p5--|-5--7-5--5--8h9--|
|----------------------|-----5--5h7-----7-----7-|-----------------|
|----------------------|------------------------|-----------------|
|----------------------|------------------------|-----------------|

|-------13----13--------12----12-|
|--------------------------------|
|-12/14----14-----12/13----13----|
|--------------------------------|
|--------------------------------|
|--------------------------------|

With [Riff 1]:

There is a train that leaves the station
heading for your destination,
But the price you pay to nowhere
has increased a dollar more. Yes, it has!
And if you walk you're gonna get there
although it takes a little longer,
And when you see it in the distance
you will wring your hands and moan.

Repeat [Riff 1] until fade out

__________________________________________________________________________

Since I've Been Loving You:
__________________________________________________________________________

Cm
x 3 5 5 4 x Fm
1 3 3 1 1 x Bb5/C
x 3 3 3 x x Gm
3 5 5 3 x x



Intro
Slowly Q.=44
Cm
12/8
Gtr I
~~~~~~~~~~~~~~~~~
|-----------8------|----------------------11-10-8-10-11-|
|---------8---11-8-|-11b13=======(11)r------------------|
|------------------|------------------------------------|
|------------------|------------------------------------|
|------------------|------------------------------------|
|------------------|------------------------------------|


Fm
~
|-10-8---10-8-----------------------------------|
|------9------9-9-9--8--------------------------|
|----------------------10---7-8-10-7-8----------|
|--------------------------------------10-8-----|
|-------------------------------------------10--|
|-----------------------------------------------|


Cm
~~~~~~~~ ~~ ~~~~~~~~
|-------------------------------------|------------------------------11-13-|
|-------------------------------------|------------------------------------|
|-----------------------8p7----7-8-10-|-10s12------(12)-12-12--(12)--------|
|-------8s10--(10)----------10--------|------------------------------------|
|-8p6---------------------------------|------------------------------------|
|-----8-------------------------------|------------------------------------|


Fm
~~~
|-15p13p11-13-15-13-11-13-13------------------------13h15p13-11-13-15-13-11-13----|
|----------------------------13-13-(13)--(13)--(13)----------------------------13-|
|---------------------------------------------------------------------------------|
|---------------------------------------------------------------------------------|
|---------------------------------------------------------------------------------|
|---------------------------------------------------------------------------------|


~~~~~~~~~~~~~
|-------------------------------8-----------------------|
|-(13)---(13)--8s11---------7s8---11-8------------------|
|-------------------10s12--------------11-10-8----10----|
|----------------------------------------------10----10-|
|-------------------------------------------------------|
|-------------------------------------------------------|


Cm
~~~~~~~~~~ ~~~~~~
|---------------------------------------------------------------------|
|----------------------------------------------------8-------11-13-13-|
|-8p7------------------8p7---------------8p7----8-10---10s12----------|
|-----10-8-8-8-(8)-(8)-----10-8-8-8-(8)------10-----------------------|
|---------------------------------------------------------------------|
|---------------------------------------------------------------------|


~~ ~~~~~~~~~~~~
|------------11-13-13b15-13-11-13-13b15==(13)r------|
|-13---11h13----------------------------------------|
|---------------------------------------------------|
|---------------------------------------------------|
|---------------------------------------------------|
|---------------------------------------------------|


Gm
Gtrs I, II
~~~~~~ ~~~~~~
|------------------------------------10-13-13b15-13b15====(13)r------|
|-11p8----8h11p8----8-8-(8)-------11-----------------------------9-11-|
|------10--------10---------10s12-------------------------------------|
|---------------------------------------------------------------------|
|---------------------------------------------------------------------|
|---------------------------------------------------------------------|


Ab
~~~~~ PM ~~
|--------11-------11----13b15--13b15-13--13b15--|
|-11b13-----11b13----11-------------------------|
|-----------------------------------------------|
|-----------------------------------------------|
|-----------------------------------------------|
|-----------------------------------------------|


Cm/Eb G7/Cm Eb7 D7 Dbmaj7
Gtr I
~~
|-11---------------------|-------------------------------------||
|----13-(13)------------|-------------------------------------||
|------------------------|---5------5b7-5------5------5b7-5----||
|-------------------/5---|-4---------------4-3-----------------||
|------------------------|-------------------------------------||
|-------------------/6---|-5----(5)--------5-4----(4)--------4-||


1st Verse
Cm Fm
|------------------|-------------------------|
|------------------|-------------------------|
|------------/8-/8S|=1--------8-10b12--10b12-|
|------------------|-------------------------|
|-3----------------|-------------------------|
|------------------|-------------------------|


Cm
~~~~~
|---------------------------------------|
|---------------------------------------|
|-10b12----------10pb12r(10)-8-10-10b12-|
|---------------------------------------|
|---------------------------------------|
|---------------------------------------|


~~
|---------------------------------------------------|
|---------------/11b13==(11)r-11-8------------------|
|-8--------------------------------10-8p7----7-8-10-|
|---10-10---------------------------------10--------|
|---------------------------------------------------|
|---------------------------------------------------|


Fm
~~
|-------------------------|------------------------------------------|
|-------------------------|------------------------------------------|
|-10--------------1-3-3s5-|-3s5-3-1-1s3s1-1s3-1-1s3s1-1s3-1-1s3s1-3--|
|----10-10----------------|------------------------------------------|
|-----------------3-5-5s6-|-5s6-5-3-3s5s3-3s5-3-3s5s3-3s5-3-3s5s3-5--|
|-------------------------|------------------------------------------|


Cm
~
|-------------------------------------|
|-------------------------------------|
|-3s5---------------------------------|
|-------------10-12-12-13-12-12-10----|
|-5s6------------------------------13-|
|-------------------------------------|


~~
|-------------------------------------------------------------------------|
|----------------------------11-------------------------------------------|
|----------10h11p10-------12----10h11p10----10----------------------------|
|-10-12-13----------13-10----------------13----13-10-10-12-13p12p10-10-8-|
|-------------------------------------------------------------------------|
|-------------------------------------------------------------------------|


Gm Ab Fm
Gtr II
~ ~ ~ ~
|-3--3-(3)---(3)--------|---------------------------|
|-3--3-(3)---(3)--------|---------------------------|
|-0--0-(0)---(0)--------|---------------------------|
|-5--5-(5)---(5)----5-5-|-6--6s8-6--5-3--3s5-3--3s5-|
|-----------------------|---------------------------|
|-------------------3-3-|-4--4s6-4--3-1--1s3-1--1s3-|


Cm/EbG7/DCm Eb7 D7 Dbmaj7
~~ ~ ~~~
|------------------|---------------------------------------||
|------------------|---------------------------------------||
|-/5---4---5-------|---5----5b7r(5)------5------5b7r(5)----||
|--------------5---|-4---------------4-3-------------------||
|-/6---5---6-------|---------------------------------------||
|--------------6---|-5----5----------5-4----(4)----------4-||


2nd Verse
Cm
Gtr I
|---------------------------------------------------|
|-------4-------3-----3-(3)-4-----4-------3-----4---|
|-----5---5---5---5-----------5-----5-(5)---5-----5-|
|---5-------5-------5-----------5-------------5-----|
|-3---------------------(3)------------3------------|
|---------------------------------------------------|


Fm
|-----------------3-----1-------3-----3-----1---------|
|---1-----1-------1-------1-(1)---1-----1-----1---1---|
|-----1-----1-(1)---1---------------1-----1-----1-----|
|-------3-------------3-------------------------------|
|-----------------------------------------------------|
|-1------------1-------------1------------------------|


Cm
|-------------------------------------------------------|
|-----4-------3-------3-------4-----4-------3------3----|
|-------5---5---5---5---5-(5)---5-----5-(5)---5-------5-|
|---5-----5-------5---------------5------5------5-(5)---|
|-3-----------------------(3)---------------------------|
|-------------------------------------------------------|


|-----------------------------------------------------------|
|---4------4--------3------3--------4------4----------------|
|-----5-------5-(5)---5-------5-(5)---5-------5-5-5-5-5-3---|
|-5-----5-(5)----5------5-(5)----5------5-(5)---------------|
|-----------------------------------------------6-6-6-6-5-5-|
|-----------------------------------------------------------|


Fm
|---------------------------------------------|--------------^1-----1--|
|-----------1-------------1-------------1-----|--------------^1-----1--|
|-1-------1---1---------1---1---------1---1---|------------0-^1-----1--|
|-------3-------3-(3)-3-------3-(3)-3-------3-|---3-(3)------^3-----3--|
|-3---3------------3-------------3------------|-3----------------------|
|---------------------------------------------|------------------------|


Cm
... pick-slide
// ... hammer-on
... pull-off

(e)-->e
(b)-->up to c
(g)-->g
(D)-->down to C
(A)-->A
(E)-->down to C

-------------------------------------------------------------0----------|
-------------0-----------------------0----------------------------------|
-------0-----------0-----------0-----------0-----------0-----------0----|
----------0-----------0-----------0-----------0-----------0-----------0-|
-0->3--------------------0->3--------------------0->3-------------------|
----------------0-----------------------0-----------------------0-------|

-------------0-----------------------0-----------------------0----------|
------------------------------------------------------------------------|
-------0-----------0-----------0-----------0-----------0-----------0----|
----------0-----------0-----------0-----------0-----------0-----------0-|
-0->3--------------------0->3--------------------0->3-------------------|
----------------0-----------------------0-----------------------0-------|

-------------0-----------|
-------------------------|
-------0-----------0-----|
----------0-----------0--|
-0->3--------------------|
----------------0--------|

begin 1:
----------3



Get this song at amazon.com      Ebay     Ringtones Ringtones  


Learn to play: Songwriting, Piano, Harmonica, Guitar
More Led Zeppelin lyrics available at Muzikum

Related Led Zeppelin Tabs

Black Dog tabs
The Rain Song Bass tabs
When The Levee Breaks tabs
Four Sticks Bass tabs
Poor Tom tabs
In Through The Out Door Bass tabs
Heart Breaker tabs
Lz Time Of Dying tabs
Yallah tabs
Going To California tabs
In The Evening Bass tabs
The Song Remains The Same tabs
Heartbreaker I Swear It's 100 Freakin % Perfect tabs
Stair Way To Heaven tabs
Ten Years Gone tabs
For Your Life Bass tabs
When The World Was Young tabs
Stairway To Heaven (complete) tabs
Stairway To Heaven (the Best Tab Ever) tabs
Carouselambra Bass tabs


Guitar Tabs









All tabs are property and copyright of their owners. All tabs provided for educational purposes only. Privacy Policy, DMCA