Led Zeppelin

Kashmire Bass Tabs



More from Led Zeppelin

Led Zeppelin Tabs
Led Zeppelin Chords
Led Zeppelin Bass
Led Zeppelin Lyrics




Intro 00:00
G|-2-2-2-2-2-2---3-3-3-3-3-3---4-4-4-4-4-4---5-5-5-5-5-5---7-7-7-|
D|-0-0-0-0-0-0-0-0-0-0-0-0-0-0-0-0-0-0-0-0-0-0-0-0-0-0-0-0-0-0-0-|
A|---------------------------------------------------------------|
E|---------------------------------------------------------------|

Main Riff 00:10
G|-2-2-2---3-3-3-3-3-3---4-4-4-4-4-4---5-5-5-5-5-5---7-7-7-|
D|-0-0-0-0-0-0-0-0-0-0-0-0-0-0-0-0-0-0-0-0-0-0-0-0-0-0-0-0-|
A|---------------------------------------------------------| x5
E|---------------------------------------------------------|

G|-12-11-10-9--7-6-5-4-3-2-------|
D|-12-12-10-10-7-7-5-5-3-3-3-2-0-|
A|-------------------------------| x2
E|-------------------------------|

Pre-Bridge 02:06
G|-12-11-10-9--7-6-5-4-3-2-------------|
D|-12-12-10-10-7-7-5-5-3-3-3-2-0-----0-|
A|-------------------------------0-2---|
E|-------------------------------------|

Bridge 02:12
G|-------------------------------------|
D|-------7/1---------7/1---3-2-0-----0-|
A|-0-0-0-----0-0-0-0-----0-------0-2---|
E|-------------------------------------|



Get this song at amazon.com      Ebay     Ringtones Ringtones  


Learn to play: Songwriting, Piano, Harmonica, Guitar
Also available at Muzikum: Led Zeppelin - Kashmire lyrics

Related Led Zeppelin Bass Tabs

Black Dog bass
Since I've Been Loving You bass
Royal Orleans bass
Bron Y Aur Stomp bass
Out On The Tiles (complete) bass
Hot Dog bass
Travelling Riverside Blues bass
Trampled Under Foot bass
Friends bass
Bring It On Home- The Whole Song bass
The Gilr I Love, She Got Long Black Wavy Hair bass
Lemon Song bass
Poor Tom bass
Baby Come On Home bass
Fool In The Rain bass
Gallows Pole 99 9% Correct bass
Whole Lotta Love Bass Tabs bass
Bron-y-aur Stomp (correct) bass
No Quarter bass
Whole Lotta Of Love bass


Guitar Tabs









All tabs are property and copyright of their owners. All tabs provided for educational purposes only. Privacy Policy, DMCA