Led Zeppelin

Kashmir (live) Bass Tabs



More from Led Zeppelin

Led Zeppelin Tabs
Led Zeppelin Chords
Led Zeppelin Bass
Led Zeppelin Lyrics



Ok...for those who can't read title: This is the live performance in their '94 tour.
the tuning is standard.

let jimmy and robert do the intro, you clearly hear the four hi Hat drum beat Then:

g--11-9-8-----------------------x2
d---------11--98----------------
a---------------10-9-8----------
e----------------------11--987--

MAIN RIFF
g--------777------repeat till the ouhhhhhh!! of robert plant
d-----------------
a-5-555-----------
e-----------------

THEN
g--11-9-8------------------------------x2
d-----------11--98---------------------
a---------------------10-9-8------------
e------------------------------11--987--


come back to the main, you hear robert ''yes yesssire''

Then:

g--11-9-8-----------------------x1
d----------11--98----------------
e-----------------10-9-8---------
a-----------------------11-9-8-7-


BRIDGE:

g-----------------------------------------------x3
d------------------------------------0h3-0h2h3--
a--------------------------------2p0------------
e--0--0--0-12/-----0--0--0-12/------------------ then repeat the pop'n'slap thing
p p p s p p p s

THEN:
g--11-9-8-----------------------x2
d----------11--98----------------
e-----------------10-9-8---------
a-----------------------11-9-8-7-

After there's a part that I not tabbed...not because that I'm ain't good but because
it's great to improvise with the violins. Try out some riff.

Then there's the weird solo, after a minute, the percussions enter a riff:

you wait when robert sing...then compt a time and you do that: E-3p0h3h6-0h2h3-0-------


after you repeat it one time THEN:


g--11-9-8-----------------------x2
d----------11--98----------------
e-----------------10-9-8---------
a-----------------------11-9-8-7-

YOU do the main part THEN:

g--11-9-8-----------------------x2
d----------11--98----------------
e-----------------10-9-8---------
a-----------------------11-9-8-7-

Another beautiful improvisation...

Then it's probably my favourite part of the song: You hear the return of the percussions
then you start that riff.

g-----------------------------------x3
d-----------------56----------------
a----------0-/3--4---0/7-improvise--
e-0---4-56-------------------------- But the fourth time you don't make improvisation

Bass stop. But just for a while!

When you hear violins:

g----------------------x2
d----------------------
a------4-46------4-47--
e---5-5-------5-5------

When you don't hear them:

g------------------------x3 g-----------------
d-------------------456-- d-----------------
a------4--4-66-4-45------ a-----------------
e--5--5------------------ e-6---6---6--6--6-

Then Robert: "It's all I want, It's all I need" x4


Then you repeat the same thing, beginning to the Bass stop.

THE BLACK DOG RETURN!!!:

Fill Riff
g---------- ---------------------------------------x3 g--------------------------
d---------- ------------------------------------------ d--------------------------
a---7----5- -------------3---------3----7---5- a-0/5-(repeat few times)---
e-0----0--- --0h3-53--0h3--3---0h33--3-0--0--- e--------------------------
p s p s p s p s



This is the end, I hope that you well understand all the riff. Enjoy the greatest led zeppelin
song.



Get this song at amazon.com      Ebay     Ringtones Ringtones  


Learn to play: Songwriting, Piano, Harmonica, Guitar
More Led Zeppelin lyrics available at Muzikum

Related Led Zeppelin Bass Tabs

Rock & Roll bass
Rock N Roll bass
Kashmir (correct) bass
Hart Breaker bass
Black Dog Bass Tab bass
Trampled Under Foot bass
Night Flight bass
Dazed And Confuzed bass
Out On The Tiles bass
Babe, Im Going To Leave You bass
Kashmir Intro bass
For Your Life bass
Black Country Woman bass
Sick Again bass
What Is And Never Should Be bass
Fool In The Rain bass
All My Love bass
Misty Mountain bass
Dyer Maker bass
The Wanton Song (complete) bass


Guitar Tabs









All tabs are property and copyright of their owners. All tabs provided for educational purposes only. Privacy Policy, DMCA