Led Zeppelin

Kashmir (correct) Bass Tabs



More from Led Zeppelin

Led Zeppelin Tabs
Led Zeppelin Chords
Led Zeppelin Bass
Led Zeppelin Lyrics




Led Zeppelin
Kashmir


Main Riff
|--2-2--2-2-2--3-3--3-3-3--4-4--4-4-4--5-5--5-5-5--7-7---|
|--------------------------------------------------------|
|--0-0--0-0-0--1-1--1-1-1--2-2--2-2-2--3-3--3-3-3--5-5---|
|--------------------------------------------------------|

Chorus 1
|--------------------------------------------------------------|
|--------------------------------------------------------------|
|--------------------------------------------------------------|
|-4--2---7---6--5--4---5--4--3--2------3--0--------------------|

OR

Chorus 2
|--1-2-1-1-1-0-9--7-6-5-4-3-2---------| |-----------------------------|
|--1-2-1-2-1-0-1-0-7-7-5-5-3-3-3-2-0--| |--0--0-0-/1-2--0--3p2h3p2-0--|
|-------------------------------------| |-----------------------------|
|-------------------------------------| |-----------------------------|


Note: John Paul Jones (bassist/keyboardist) played this song
on the keyboards, but this tab is the exact same thing. I discovered
Chorus 1 and it genuinely sounds the same, but is recommended
for beginners. Those of you who have been playing for a while
should have no trouble playing Chorus 2. Both chorus parts are
the same things, but I discovered an easier part for all of you
novices out there. Enjoy.

- Jake Calhoun 6/1/06



Get this song at amazon.com      Ebay     Ringtones Ringtones  


Learn to play: Songwriting, Piano, Harmonica, Guitar
More Led Zeppelin lyrics available at Muzikum

Related Led Zeppelin Bass Tabs

Whole Lotta Love Bass Tabs bass
Gallows Pole bass
Stair Way To Heaven (correct) bass
Achilles Last Stand bass
Black Dog Correct bass
The Girl I Love bass
You Shook Me bass
Dazed And Confused bass
Dazed & Confused bass
Kashmir Intro bass
Hart Breaker bass
Celebration Day bass
White Summer/black Mountain Side bass
Ten Years Gone bass
Babe Im Gonna Leave You bass
Achelles Last Stand bass
Nobodys Fault But Mine bass
Hots On For Nowhere bass
Black Dog(100% Correct) bass
Rock N Roll bass


Guitar Tabs









All tabs are property and copyright of their owners. All tabs provided for educational purposes only. Privacy Policy, DMCA

Online converter - videoconverter.com