Led Zeppelin

Kashmir Bass Tabs



More from Led Zeppelin

Led Zeppelin Tabs
Led Zeppelin Chords
Led Zeppelin Bass
Led Zeppelin Lyrics

Date: Tue, 18 Jun 2002 22:27:51 +0300 (EEST)
From: =?ISO-8859-1?Q?jan_bj=F6rklund?= 
Subject: l/led_zeppelin/kashmir.btab

l/led_zeppelin/Kashmir.btab

Basstab by Jan Bjorklund, Finland 
You are welcome to request for basstabs!
Bienvenidos a pedirme transcripciones para el bajo!
Fingering and positions as suggested by TablEdit. 

TablEdited by Jan Bjorklund for whizzy
Tuning : E A D G 	Time Signature: 4/4

  |       |       |       |          |       |       |       |         
|-7-7---------7-7-7----------------||----7-7-7-------------------7-7--|
|----------------------------------|*---------------------------------|
|-------------------5-5---5-5-5----|*------------5---5-5-5------------|
|----------------------------------||---------------------------------|

  |       |       |       |        >1|       |       |       |         
|-7-------------------7-7-7-------||-------------7-7-7---------------||
|---------------------------------||---------------------------------*|
|-----5---5-5-5---------------5---||-5-5-5-------------5-5---5-5-5---*|
|---------------------------------||---------------------------------||

>3|       |       |       |          |       |       |       |         
|----------------------------------|-----------------------------7-7--|
|-0-0-0-------0-0-0-0-0---0-0-0----|----------------------------------|
|----------------------------------|-----5-5-5-5-5---5-5-5------------|
|----------------------------------|----------------------------------|

  |       |       |       |          |       |       |       |         
|-----7-7-7-------------------7-7--|-7--------------------------------|
|----------------------------------|----------------------------------|
|-----------5-5---5-5-5------------|-----5---5-5-5-------5-5-5-5-5----|
|----------------------------------|----------------------------------|

  |       |       |       |          |       |       |       |         
|-7--------------------------------|-------------7--------------------|
|----------------------------------|----------------------------------|
|---5-5---5-5-5-------5-5-5-5-5----|-5-5-5----------------------------|
|----------------------------------|----------------------------------|

  |       |       |       |          |       |       |       |         
|-----7---7-------------------7-7--|---------------------7-7----------|
|----------------------------------|----------------------------------|
|-------5-----5-5---5-5------------|-----5-5-5-5-5---------------5-5--|
|----------------------------------|----------------------------------|

  |       |       |       |          |       |       |       |         
|----------------------------------|-----7-7-7-------------------7-7--|
|-0-0-0-------0-0-0-0-0---0-0-0----|----------------------------------|
|----------------------------------|-------------5---5-5-5------------|
|----------------------------------|----------------------------------|

  |       |       |       |          |       |       |       |         
|-7-------------------7-7-7--------||---------------------------------|
|----------------------------------|*0-0-0-------0-0-0-0-0---0-0-0----|
|---5-5---5-5-5---------------5----|*---------------------------------|
|----------------------------------||---------------------------------|

  |       |       |       |        >4|       |       |       |         
||----7-7-7-------------------7-7--|-7-------------------7-7-7-------||
|*---------------------------------|---------------------------------||
|*----------5-5---5-5-5------------|-----5---5-5-5---------------5---||
||---------------------------------|---------------------------------||

>1|       |       |       |          |       |       |       |         
|-7-7-7-------7-7-7----------------|-----7-7-7-------------------7-7--|
|----------------------------------|----------------------------------|
|-------------------5-5---5-5-5----|-------------5---5-5-5------------|
|----------------------------------|----------------------------------|

  |       |       |       |          |       |       |       |         
|-7-------------------7-7-7--------|-------------7-7-7---------------||
|-----------------------------7----|---------------------------------*|
|---5-5---5-5-5--------------------|-5-----------------5-5---5-5-5---*|
|----------------------------------|---------------------------------||

>2|       |       |       |          |       |       |       |         
|-9-----7--------------------------|-0-----0--------------------------|
|-------------10----7---------7----|-------------3-----3-----3-2-0----|
|----------------------------------|-------------------------------0--|
|-------------------------10-------|----------------------------------|

  |       |       |       |          |       |       |       |         
||---------------------------------|-2--------------------------------|
|*--0------------------------------|----------------------------------|
|*2---0-----------0-------0--------|---------0------------------------|
||---------------------------------|----------------------------------|

  |       |       |       |        >1|       |       |       |         
|---------------------------------||-2-------------------------------||
|---------------------------------||-------------------------3-2-0---*|
|-----0-----------0-------0-------||---------0---------------------0-*|
|---------------------------------||---------------------------------||

>5|       |       |       |          |       |       |       |         
|-2--------------------------------|-----9-----7----------------------|
|----------------------------------|-----------------10----7----------|
|---------0------------------------|----------------------------------|
|----------------------------------|-----------------------------10---|

  |       |       |       |          |       |       |       |         
|-2---0-----0----------------------||----9-----7----------------------|
|-----------------3-----3-----3-2--|*----------------10----7----------|
|----------------------------------|*---------------------------------|
|----------------------------------||10--------------------------10---|

  |       |       |       |          |       |       |       |         
|-2---0-----0---------------------||----------------------------------|
|-----------------3-----3-----3-2-*|-0--------------------------------|
|---------------------------------*|----------------------------------|
|---------------------------------||-----3---------------3---3--------|

  |       |       |       |          |       |       |       |         
|---------------------0---0--------|-------------2---------------2----|
|----------------------------------|----------------------------------|
|----------------------------------|-----0---------------0---0--------|
|-----3---3---3--------------------|----------------------------------|

  |       |       |       |          |       |       |       |         
|-------------2-------2---2---2----|-2--------------------------------|
|----------------------------------|----------------------------------|
|-0-------0------------------------|----------------------------------|
|----------------------------------|-----3-------3-------3---3--------|

  |       |       |       |          |       |       |       |         
|----------------------------------|-------------2-------2-2-2-2-2----|
|----------------------------------|----------------------------------|
|----------------------------------|-----0----------------------------|
|-3-------3---3-------3---3--------|----------------------------------|

  |       |       |       |          |       |       |       |         
|-2-------2---2---2-------2---2----|---------------------0---0--------|
|----------------------------------|----------------------------------|
|----------------------------------|----------------------------------|
|----------------------------------|-----3-------3-----3--------------|

  |       |       |       |          |       |       |       |         
|----------------------------------|-----2-2-----------------0-2------|
|----------------------------------|----------------------------------|
|----------------------------------|-------------0-------0------------|
|-3-------3---3---3---3---3---3----|-3--------------------------------|

  |       |       |       |          |       |       |       |         
|-0-2-2---2-2-2---2---2-2-2---2----|-2--------------------------------|
|----------------------------------|----------------------------------|
|----------------------------------|----------------------------------|
|----------------------------------|-----3---------------3---3--------|

  |       |       |       |          |       |       |       |         
|----------------------------------|-------------2-------2-2-2-2-2----|
|----------------------------------|----------------------------------|
|----------------------------------|-----0---0------------------------|
|-3-----------3-------3---3--------|----------------------------------|

  |       |       |       |          |       |       |       |         
|-------2-2---2---2---2---2---2----|-2-----------0--------------------|
|----------------------------------|----------------------------------|
|-0--------------------------------|----------------------------------|
|----------------------------------|-----3---------------3---3-3-3----|

  |       |       |       |          |       |       |       |         
|-------------0--------------------|-------------9--------------------|
|----------------------------------|----------------------------------|
|----------------------------------|-----0---------------0---0--------|
|-3-------3-----------3---3--------|----------------------------------|

  |       |       |       |          |       |       |       |         
|-9--------------------------------|-----------------7-7-7------------|
|----------------------------------|----------------------------------|
|----------------------------------|-----5-5-5-------------5-5---5-5--|
|----------------------------------|----------------------------------|

  |       |       |       |          |       |       |       |         
||--------7-7-7--------------------|-7-7-7-------------------7-7-7---||
|*---------------------------------|---------------------------------||
|*5---------------5---5-5-5--------|-------5-5---5-5-5---------------||
||---------------------------------|---------------------------------||

>1|       |       |       |        >2|       |       |       |         
|-----------------7-7-7-----------||----------------------------------|
|---------------------------------*|-0---0-0-0-------0-0-0---0---0-0--|
|-5---5-5-5-------------5-5---5-5-*|----------------------------------|
|---------------------------------||----------------------------------|

>3|       |       |       |        >4|       |       |       |         
|----------------------------------|----------------------------------|
|-0---0-0-0-------0-0-0---0---0-0--|-0---0-0-0-------0-0-0---0---0-0--|
|----------------------------------|----------------------------------|
|----------------------------------|----------------------------------|

>5|       |       |       |        >6|       |       |       |         
|----------------------------------|-----------------7-7-7------------|
|-0---0-0-0-------0-0-0---0---0-0--|-----------------------7----------|
|----------------------------------|-5---5-5-5---------------5--------|
|----------------------------------|----------------------------------|

  |       |       |       |          |       |       |       |         
|-------------7--------------------|-7-7-7-------------------7-7-7----|
|----------------------------------|-------7--------------------------|
|---------5-5----------------------|---------5------------------------|
|----------------------------------|----------------------------------|

  |       |       |       |          |       |       |       |         
|---------7-------7-7--------------|---------7-7-7--------------------|
|-------7--------------------------|----------------------------------|
|-5--------------------------------|-----------------5---5-5-5--------|
|----------------------------------|----------------------------------|

  |       |       |       |          |       |       |       |         
|-7-7-7-------------------7-7-7----|----------------------------------|
|----------------------------------|-0---0-0-0-------0-0-0---0---0-0--|
|-------5-5---5-5-5----------------|----------------------------------|
|----------------------------------|----------------------------------|

  |       |       |       |          |       |       |       |         
|----------------------------------|---------------------------------||
|-0---0-0-0-------0-0-0---0---0-0--|-0---0-0-0-------0-0-0---0---0-0-||
|----------------------------------|---------------------------------||
|----------------------------------|---------------------------------||

>1|       |       |       |        >2|       |       |       |         
|----------------------------------|-------9-7-------7-7-7------------|
|-0---0-0-0-------0-0-0---0---0-0--|-----------------------7-------7--|
|----------------------------------|----------------------------------|
|----------------------------------|-10--10------------------10-------|

  |       |       |       |          |       |       |       |         
|-7-------7-7-7--------------------|-7-7-7-------------------7-7-7----|
|----------------------------------|----------------------------------|
|-----------------5-----5----------|-------5-5-----5------------------|
|----------------------------------|----------------------------------|

  |       |       |       |          |       |       |       |         
|-----------------7-7-7------------|---------7-7-7--------------------|
|----------------------------------|----------------------------------|
|-5---5-5-5-------------5-5--------|-----------------5---5-5-5--------|
|----------------------------------|----------------------------------|

  |       |       |       |          |       |       |       |         
|-7-7-7-------------------7-7-7----|----------------------------------|
|----------------------------------|-0--------------------------------|
|---------5---5-5-5----------------|----------------------------------|
|----------------------------------|-----3-------3-------3---3--------|

  |       |       |       |          |       |       |       |         
||---------------------------------|----------------------------------|
|*---------------------------------|----------------------------------|
|*---------------------------------|-----0---0---0-------0---0--------|
||3-------3-3-3-------3---3--------|-3--------------------------------|

  |       |       |       |        >1|       |       |       |         
|---------------------------------||---------------------------------||
|---------------------------------||---------------------------------*|
|-0-------0-0-0-------0---0---0---||-0-------------------------------*|
|---------------------------------||-----3-------3-------3---3-------||

  |       |       |       |         
|----------------------------------|
|----------------------------------|
|-0--------------------------------|
|----------------------------------|


Created with TablEdit http://www.tabledit.com/


............................................................
Get this song at amazon.com      Ebay     Ringtones Ringtones  


Learn to play: Songwriting, Piano, Harmonica, Guitar
Also available at Muzikum: Led Zeppelin - Kashmir lyrics

Related Led Zeppelin Bass Tabs

Ten Years Gone bass
Black Dog (tabbed From Notes) bass
For Your Life bass
Moby Dick (%100 Perfect I Promise) bass
I Cant Quit You Baby bass
The Girl I Love bass
The Rain Song bass
You Shook Me bass
Bring It On Home- The Whole Song bass
Street corner girl bass
Kashmir (correct) bass
Heartbreaker Complete bass
Darlene bass
The Ocean bass
Kashmire bass
South Bound Suarez bass
Dazed And Confuzed bass
Fool In The Rain bass
Custard Pie bass
Babe, Im Going To Leave You bass


Guitar Tabs









All tabs are property and copyright of their owners. All tabs provided for educational purposes only. Privacy Policy, DMCA