Led Zeppelin

In Through The Out Door Bass Tabs



More from Led Zeppelin

Led Zeppelin Tabs
Led Zeppelin Chords
Led Zeppelin Bass
Led Zeppelin Lyrics



LED ZEPPELIN

In The Evening





Standard Tuning



G|----------------|

D|----------------|

A|----------------|

E|----------------| 19X

The intro part In the eve - - ning....





G|----------------|------------0---|----------------|----------------|

D|2-2-2-2-0-0-----|----------2---2-|--2-2-2-0-0-----|----------2-2---|

A|--------------0-|--------4-------|--------------0-|------0-4-------|

E|----------------|----------------|0---------------|----------------|



G|----------------|------------0---|----------------|----------------|

D|2-----2-0-0-----|----------2---22|----2---0-0-----|--------11--11--|

A|--------------0-|0-0-0-0-4-------|--------------0-|0-0-0---0---0---|

E|--0-------------|----------------|0---------------|----------------|



G|----------------|------------0---|----------------|--------2-2-2---|

D|----2---0-0-0---|----------2---22|--2-2---0-0-----|----------------|

A|--------------0-|0-0-0-0-4-------|--------------0-|0-0-0-----------|

E|0-0---0---------|----------------|0-----0---------|----------------|



G|----------------|------------0---|----------------|----------------||

D|----2---0-0-0---|----------2---22|--2-2-2-0-0-0---|----------------||

A|--------------0-|0-0-0-2-4-------|--------------0-|0-0-0-0-0-0-0-00||

E|0-0---0---------|----------------|0---------------|----------------||



G|----------------|----------------|----------------|----------------|

D|0-0---0---------|0-0-----0-----0-|--00------------|0-0---0-------0-|

A|-------20-000-2-|------0---0-----|-----02-0-0--020|----------0-----|

E|----------------|----2-----------|----------------|----------------|

Oh, I need your love....



G|----------------|----------------|----------------|----------------||

D|--0-------------|0-0---0-------0-|--0-------------|0-----0---------||

A|------2-0-0--020|----------0-----|-----02-0-0--020|--0-------------||

E|-------2--------|----------------|-------2--------|----------------||



D.S.

G|----------------|--------0-2-020-|----------------|--2-2-2-----0---|

D|--2-2---0-0-----|---------------2|--2-2-2-0-0-----|--------2-2---2-|

A|--------------0-|--0-0-0---------|--------------0-|----------------|

E|0-----0---------|----------------|0---------------|----------------|

\\3/



G|----------------|--------------0-|----------------|2---4-----9-12--|

D|----2-2-0-0-----|------------2---|2-2-2-2-0-0-----|--------11----11|

A|--------------0-|--0-2-2-4-4-----|--------------0-|-0---2----------|

E|0-0-------------|----------------|----------------|----------------|



G|-------------02-|------------0---|--------------2-|--2-2-----91290-|

D|----2-2-0-0-2---|----------2--22-|--2-2---0-0-----|--------11------|

A|----------------|0-0-0-0-4-------|----------------|0---------------|

E|0-0-------------|----------------|0-----0---------|----------------|



G|--------------2-|2---2-------0---|----------------|2-2-2-2---------||

D|----2-2-0-0-2---|----------2--222|--2-2---0-0-----|----------------||

A|----------------|--0--0234-------|--------------00|--------0-0-0-0-||

E|0-0-------------|----------------|0-----0---------|----------------||



G|----------------|0-------0-------|----------------|02--0-0---------|

D|----------0-2-0-|--3-2-0---0-----|----------0-2-0-|----------2-----|

A|---00-1-2-------|----------------|---00-1-2-------|--------------0-|

E|3-3-------------|--------------3-|----------------|----------------|

Oh, I need your love....



to Coda

G|----------------|24--2-2---------|----0-----------||----------------||

D|----------2-4---|----------2-----|------4-2-----2-||4---------------||

A|--222-3-4-------|--------------0-|--0-------3-4---||----2-----------||

E|----------------|----------------|----------------||--2-------------||



G|----------------|----2-----9-129-|----------------|2-------2--0----|

D|----2---0-0-----|--------11------|----2---0-0-----|--------------4-|

A|--------------0-|--0-------------|--------------0-|----------------|

E|0-----0---------|----------------|0-0---0---------|--33--2---------|



G|----------------|22--2---4---46--|----------------|--2-------------|

D|2---2-2-0-0-----|----------------|--2-2---0-0-7---|--------------02|

A|--------------0-|----------------|----------------|0---0-0-0-0-0---|

E|--0-------------|----------------|0-----0---------|----------------|



G|---------------2|-2--2-------0---|---------------2|--------------0-|

D|----2-2-0-0-0---|----------2---2-|--2-2---0-0-----|------0--1--2--2|

A|--------------0-|--------4-------|--------------0-|---4------------|

E|0-0-------------|----------------|0-----0---------|----------------|



G|----------------|---------9--1212|----------------|----------------||

D|2---2-2-0-0-7--7|--7-7-911-------|----2---0-0-7-7-|7-7-7-7-7-7-7-7-||

A|----------------|----------------|----------------|----------------||

E|--0-----------5-|----------------|0-0---0---------|----------------||



G|----------------|----------------|----------------|----------------|

D|0-0------------0|0-------------0-|--0-0-----------|0-0---0-------0-|

A|-----02-0-0-2-2-|--2-0-2-0-0-----|-----02-0-0---02|----------0-----|

E|-------2--------|----------------|-------2--------|----------------|



G|----------------|----------------|----------------|----------------||

D|--0-----------0-|0-0-----0-----0-|--0-------------|------0---------||

A|-----02-0-0-----|----0-2---0-----|-----02-0-02-20-|--0-------------||

E|-------2--------|----------------|-------2--------|----------------||



Guitar Solo

G|----------7---6-|----------------|--------7-7-----|----0---------0-|

D|--2-2-2-0-----7-|------------109-|----------------|--------4---2---|

A|------------5---|--0-0-0-0-10----|7-7---7-----5-0-|----------------|

E|0---------------|----------------|----------------|----------------|



G|----------7---7-|6---------------|----------------|----------------|

D|2---------------|----------------|----2---0-0-----|----------------|

A|--------5---5---|----------0-0-2-|0-------------0-|0-0-0-0-0-0-0-2-|

E|--0-0-0---------|--0-0-0---------|--0---0---------|----------------|



G|----------------|--------6-------|----------------|----0-----------|

D|2---------------|------------5---|2---2-2-0-000---|--------4-2---2-|

A|--------5-5-5---|----------------|--------------0-|0-----------4---|

E|--0-0-0-------5-|--5-5-5---------|--0-------------|----------------|



G|----------------|----------012-34|----------------|----------------||

D|--2-2---0-0-----|------012-------|--2-2-2-0-000---|----------------||

A|--------------0-|--234-----------|--------------00|000-0-00--------||

E|0-----0---------|----------------|0---------------|--------555-5-57||



G|------7-9---1211|-9--------111214|1211------------|------11----1112|

D|----------10----|----------------|----------------|141214--1214----|

A|----10----------|----------------|----------------|----------------|

E|8---------------|----------------|----------------|----------------|



G|14--------------|--1211--1211----|----------------|----------------|

D|--141214--------|12----14----1412|1414------12----|----12----------|

A|----------------|----------------|----14--------14|1214------9---10|

E|----------------|----------------|----------------|----------------|



G|--------------9-|1416--------1416|12--------------|------12--------|

D|----------9-10--|----------------|------1214------|--1412--1210----|

A|12--------------|----------------|----------------|----------------|

E|----------------|----------------|----------------|----------------|



D.S. al Coda CODA

G|----------------|----------------|----------------|------9-12-9--9-||4---------------||

D|10--9-----------|------9-9-------|----------------|--9-11----------||----------------||

A|--------12------|--1012----12109-|12--------------|----------------||--2-2-----------||

E|----------------|----------------|----------------|----------------||----------------||



G| ----------------|----------912129|----------------|--------0-00----|

D|o----2-210-0-5-77|-7--7-7711------|--2-2-2-0-0-0---|------22----442-|

A|o----------------|----------------|--------------00|0-234-----------|

E| 0-0-------------|5---------------|0---------------|----------------|



G|--------------2-|2---0---4--7-76-|--------------2-|22--22---12--12- |

D|2-------0-0-0---|----------------|--2-2---0-0-0---|----------------o|

A|----------------|--0-------------|----------------|--0---0---------o|

E|--0-0-0---------|----------------|0-----0---------|---------------- |





Standard Tuning



G|----------------|----------------|----------------|----------------|

D|----------------|----------------|----------------|----------------|

A|----------------|----------------|0000000000000000|0000000000000012|

E|----------------|----------------|----------------|----------------|



G|----------------|----------------|----------------|----------------|

D|----------------|----------------|----------------|----------------|

A|3333333333333333|3333333333333321|0000000000000000|0000000000000012|

E|----------------|----------------|----------------|----------------|



G|----------------|----------------|----------------|----------------|

D|----------------|----------------|----------------|-------------012|

A|3333333333333333|3333333333333321|0000000000000000|0000000000000---|

E|----------------|----------------|----------------|----------------|



G|----------------|----------------|----------------|----------------|

D|333333333333333-|-------------012|3333333333333333|-------------012|

A|---------------3|3333333333333---|----------------|3333333333333---|

E|----------------|----------------|----------------|----------------|



G|----------------|----------------|----------------|----------------|

D|3333333333333333|----------------|----------------|----------------|

A|----------------|3333333333333332|1---------------|--------------12|

E|----------------|----------------|----------------|--1-------------|



G|----------------|----------------|----------------|----------------|

D|----------------|----------------|----------------|----------------|

A|3-33333333333333|3333333333333321|0000000000000000|0000000000000012|

E|----------------|----------------|----------------|----------------|



G|----------------|----------------|----------------|----------------|

D|----------------|----------------|----------------|---------------3|

A|3333333333333333|3333333333333321|0000000000000000|000000000000000-|

E|----------------|----------------|----------------|----------------|



G|----------------|----------------|----------------|----------------|

D|-333333333333333|-------------123|-33333333333333-|-------------123|

A|----------------|3333333333333---|----------------|3333333333333---|

E|----------------|----------------|----------------|----------------|



G|----------------|----------------|----------------|----------------|

D|-333333333333333|----------------|----------------|----------------|

A|----------------|3-33333333333322|1---------------|----------------|

E|----------------|----------------|----------------|--1-------------|



G|----------------|----------------|----------------|----------------|

D|----------------|----------------|----------------|----------------|

A|3-3333333333333-|3333333333333321|0000000000000000|0000000000000012|

E|----------------|----------------|----------------|----------------|



G|----------------|----------------|----------------|----------------|

D|----------------|----------------|----------------|----------------|

A|3333333333333333|3333333333333210|-000000000000000|00000000000000--|

E|----------------|----------------|----------------|--------------32|



G|----------------|----------------|----------------|----------------|

D|----------------|----------------|----------------|----------------|

A|---------------0|3333333333333---|--------------02|3333333333333---|

E|111111111111113-|-------------321|--111111111111--|-------------321|



G|----------------|----------------|----------------|----------------|

D|----------------|----------------|----------------|----------------|

A|--------------02|3333333333333322|1---------------|--------------12|

E|--111111111111--|----------------|----------------|--1-------------|



G|----------------|----------------|----------------|----------------|

D|----------------|----------------|----------------|----------------|

A|3-33333333333333|3333333333333210|0000000000000000|0000000000000012|

E|----------------|----------------|----------------|----------------|



G|----------------|----------------|----------------|----------------|

D|----------------|----------------|----------------|-------------0--|

A|3333333333333333|3333333333333321|0000000000000000|0000000000000-3-|

E|----------------|----------------|----------------|---------------1|



G|----------------|----------------|----------------|----------------|

D|----------------|----------------|----------------|----------------|

A|--------------02|333333-3-3333---|--------------02|333333-3-3333---|

E|--111111111111--|-------------321|--111111111111--|-------------321|



G|----------------|----------------|----------------|----------------|

D|----------------|----------------|----------------|----------------|

A|--------------02|3333333333333322|1---------------|--------------12|

E|--111111111111--|----------------|----------------|--1-------------|



G|----------------|----------------|----------------|----------------|

D|----------------|------------5---|----------------|----------------|

A|3-33333333333333|333333333333-032|1---------------|--------------12|

E|----------------|----------------|----------------|--1-------------|



G|----------------|----------------|----------------|----------------|

D|----------------|------------32--|----------------|----------------|

A|3-33333333333333|333333333333--3-|1---------------|--------------12|

E|----------------|----------------|----------------|--1-------------|



G|----------------|----------------|----------------|----------------|

D|----------------|----------------|----------------|----------------|

A|3-33333333333333|3333333333333312|3333333333333333|3333333333333333|

E|----------------|----------------|----------------|----------------|



G|----------------|----------------|----------------|----------------|

D|----------------|----------------|----------------|----------------|

A|3333333333333333|3333333333333322|1---------------|--------------12|

E|----------------|----------------|---------------1|11-111----------|



G|----------------|----------------|----------------|----------------|

D|----------------|----------------|----------------|----------------|

A|3-33333333333333|333333333-----12|3333333333333012|3333333333333012|

E|----------------|---------00-3---|----------------|----------------|



G|----------------|----------------|----------------|----------------|

D|----------------|--------555532--|----------------|----------------|

A|3333333333333012|3-333333------12|3-33333333333012|3-33333333333333|

E|----------------|----------------|----------------|----------------|



G|----------------|----------------|----------------|----------------|

D|----------------|--------------1-|----------------|----------------|

A|3-33333333333012|3---------1-33-3|3333333333333333|3333333333333012|

E|----------------|-0001-2-33------|----------------|----------------|



G|----------------|----------------|----------------|

D|----------------|----------------|----------------|

A|3-33333333333333|333333333---3333|3333333333333012|

E|----------------|---------333----|----------------|





BASS TAB

Led Zeppelin - Fool In The Rain

(J. Page, R. Plant, J. Jones)

>From the album In Through The Out Door, 1979

Bassist: John Paul Jones





This song is basically this one riff repeated over and over:



G|--------------------|--------------------|

D|------2-3--7-5------|------2-3--7-5------|

A|-3-5----------------|-3-5----------------|

E|----------------3---|--------------------|





LED ZEPPELIN

Hot Dog





Standard Tuning



G|----------------|----------------|----------------|----------------|

D|----------------|----------------|----------------|----------------|

A|----------------|----------------|----------------|----------------|

E|----------------|----------------|----------------|----------0-1-2-|



G|----------------|--------5-------|----------------|----------------|

D|--------5-------|----5--5--2-3-4-|5------55-------|----------------|

A|----5--5--0-1-2-|3--3------------|---55-----2-3-4-|5-2-3-4-5-------|

E|3--3------------|----------------|----------------|----------0-1-2-|



G|----------------|--------5-------|----------------|----------------|

D|--------5-------|---25--5--2-3-4-|5---------------|--------5-------|

A|---55--5--0-1-2-|3---------------|--2-3-4-5-------|---02-5---------|

E|3---------------|----------------|----------0-1-2-|3---------0-1-2-|



G|----------------|--------5-------|----------------|----------------|

D|--------5-------|----5--5--2-3-4-|5------55-------|----------------|

A|----5--5--0-1-2-|3--3------------|---55-----2-3-4-|5-2-3-4-5-------|

E|3--3------------|----------------|----------------|----------0-1-2-|



G|----------------|----------------|----------------|----------------||

D|--------5-------|----------2-3-4-|5---------------|-------55-------||

A|---55--5--0-1-2-|3--3----3-------|--2-3-4-5-------|---55-----0-1-2-||

E|3---------------|----3--3--------|----------0-1-2-|3---------------||

Well I, well I, well I



G|----------------|--------5-------|----------------|----------------|

D|--------5-------|----5--5--2-3-4-|5------55-------|----------------|

A|----5--5--0-1-2-|3--3------------|---55-----2-3-4-|5-2-3-4-5-------|

E|3--3------------|----------------|----------------|----------0-1-2-|

just got into town today....



G|----------------|--------5-------|----------------|----------------|

D|--------5-------|---25--5--2-3-4-|5---------------|--------5-------|

A|---55--5--0-1-2-|3---------------|--2-3-4-5-------|---02-5---------|

E|3---------------|----------------|----------0-1-2-|3---------0-1-2-|



G|----------------|----------------|----------------|----------------|

D|--------5-------|----------2-3-4-|5------55-------|----------------|

A|----5--5--0-1-2-|3-0----335------|---55-----2-3-4-|5-2-3-4-5-------|

E|3--3------------|---33-----------|----------------|----------0-1-2-|



G|----------------|----------------|----------------|----------------||

D|--------5-------|----------2-3-4-|5---------------|--------5-5-4-7-||

A|---55--5--0-1-2-|3-0----335------|--2-3-4-5-------|----5--5--------||

E|3---------------|---33-----------|----------0-1-2-|3-57------------||



G|----------------|----------------|----------------|----------------|

D|---77------77---|5------55-------|----------------|5--02-----------|

A|5------55------5|---55----02-3-4-|5------55-----5-|-------02-------|

E|----------------|----------------|---55------55---|----------3-0-2-|

Now my baby's gone....



G|----------------|----------------|----------------|----------------||

D|----------2-3-4-|5-------5---5-6-|7---------------|----------------||

A|3------33-------|----5-----------|---77---0-2-3-4-|5---------------||

E|---33-----------|----------------|----------------|----------0-1-2-||



G|----------------|----------------|----------------|----------------|

D|--------5-------|----------2-3-4-|5------55-------|----------------|

A|----5--5--0-1-2-|3-0----335------|---55-----2-3-4-|5-2-3-4-5-------|

E|3--3------------|---33-----------|----------------|----------0-1-2-|



G|----------------|----------------|----------------|----------------||

D|--------5-------|----------2-3-4-|55--------------|--------5-------||

A|---55--5--0-1-2-|3-------3-------|--2-3-4-5-------|-----575--------||

E|3---------------|---33--3--------|----------0-1-2-|3--57-----0-1-2-||



Guitar Solo

G|----------------|----------------|----------------|----------------|

D|--------5-------|----5--5--2-3-4-|5------55-------|----------------|

A|----5--5--0-1-2-|3--3----3-------|---55-----2-3-4-|5-2-3-4-5-------|

E|3--3------------|----------------|----------------|----------0-1-2-|



G|----------------|----------------|----------------|----------------|

D|--------5-------|----------2-3-4-|5---------------|--------5-------|

A|---55--5--0-1-2-|3--3----3-------|--2-3-4-5-------|---02-5---------|

E|3---------------|----3--3--------|----------0-1-2-|3---------0-1-2-|



G|----------------|--------5-------|----------------|----------------|

D|--------5-------|----5--5--2-3-4-|5------55-------|----------------|

A|----5--5--0-1-2-|3--3------------|---55-----2-3-4-|5-2-3-4-5-------|

E|3--3------------|----------------|----------------|----------0-1-2-|



G|----------------|----------------|----------------|----------------||

D|--------5-------|----------223-4-|5---------------|-------55-------||

A|---55--5--0-1-2-|3-------3-------|--2-3-4-55------|---55-----0-1-2-||

E|3---------------|---33--3-0------|----------0-1-2-|3---------------||



G|----------------|----------------|----------------|----------------|

D|---77-------7---|5-------5-554---|------------7---|5-------5-------|

A|5------55------5|---55---------7-|5------55-------|---55--5-5--0-2-|

E|----------------|----------------|---55-----------|----------3-----|

Now my baby's gone I don't know what to do....



G|----------------|----------------|----------------|----------------||

D|----------2-3-4-|5-------5-4-5-6-|7---------------|----------------||

A|3-------35------|---55-----------|---77---0-2-3-4-|5---------------||

E|---33--3--------|----------------|----------------|----------0-1-2-||



G|----------------|----------------|----------------|----------------|

D|--------5-------|----------2-3-4-|5---------------|----------------|

A|----5--5--0-1-2-|3-0----335------|---55--5--2-3-4-|5-2-3-4-5-------|

E|3--3------------|---33-----------|--------3-------|----------0-1-2-|



G|----------------|----------------|----------------|----------------|

D|--------5-------|----------2-3-4-|5---------------|--------5-----5-|

A|---55--5--0-1-2-|3------33-------|--2-3-4-5-------|-----575---77---|

E|3---------------|---33-----------|----------0-1-2-|3-567-----------|



G|----------------|----------------|----------------|----------------|

D|----------------|--------5-2-3-4-|5---------------|--------5-------|

A|--2-3-4-5-------|---55--5--------|--2-3-4-5-------|-----575--------|

E|3---------0-1-2-|3---------------|----------0-1-2-|3-557-----------|



G|----------------|----------------|----------------|----------------|----------------||

D|----------------|----------5-----|----------------|----------------|----------------||

A|----------------|----------------|----------------|----------5-----|----------------||

E|----------------|----------------|----------------|------------3---|(3)-------------||





CAROUSELAMBRA



As recorded by Led Zepplin

(From the 1979 Album IN THROUGH THE OUT DOOR)



Transcribed by Omnicurse

E-mail any questions to webmaster at tabs-database.com.com





Intro

Q=118

4/4

Gtr I

|---------|---------|------------|---------------------------|

|---------|---------|--------5-6-|-7---------7-----------5-6-|

|---------|---------|------------|---0-0-(0)---0-0-0-0-0-----|

|---------|---------|------------|---------------------------|





|---------------------------|-----------------------------|

|-7-7-------------7-----5-6-|-7---------7-------7---7-5-6-|

|-----0-(0)-0-(0)---0-0-----|---0-0-(0)---0-(0)---0-------|

|---------------------------|-----------------------------|





|-----------------------------||

|-7-7-------7-------7---4-5-6-||

|-----0-(0)---0-(0)---0-------||

|-----------------------------||





Verses 1 and 2

||--------------------------|---------------------------|

||o-7-------7-(7)-----7-5-6-|-7-------7-------7---7-5-6-|

||o---0-(0)-------0-0-------|---0-(0)---0-(0)---0-------|

||--------------------------|---------------------------|





|------------------------------|

|-7---------7-------7---7-5-6--|

|---0-0-(0)---0-(0)---0--------|

|------------------------------|





|---------------------------|--------------------5-|----5----3-2-2---2-----|

|-7---------7---7-7---7-5-5-|--------------5-5h7---|-------5-------5---1s2-|

|---0-0-(0)---0-----0-------|-3-3-3--3-5s7---------|-3---------------------|

|---------------------------|----------------------|-----------------------|





|----------------------5-|----5--x-3-2-2---------|-------------------------|

|----------------5-5h7---|---------------5-2-----|-------------------2-0---|

|-3-x-3--x-3-5s7---------|-3---------------------|---------------2s4-----3-|

|------------------------|-------------------3-4-|-5-5-5-(5)-5-5-----------|





|---------------------------|

|-------------------5-6-7-7-|

|---------------------------|

|-5-5-5-(5)-5-5-5-x---------|





|-------------------------|-----------------7-8-9-----|

|-------------------2-0---|-----------5-6-7-----------|

|---------------2s4-----3-|-----------------------0-2-|

|-5-5-5-(5)-5-5-----------|-5-5-5-(5)-----------------|





|-------------------------5-|-----5--x-3-2---2-----|

|-------------------5-5h7---|---5----------5---5-2-|

|-3-3-3-(3)-3-3-5s7---------|-3--------------------|

|---------------------------|----------------------|





|-------------------------5-|-------7-8-9-------5-|--------------------------|

|-------------------5-5h7---|-------------5-6-7---|-------------------2-0----|

|-3-x-3-(3)-x-3-5s7---------|-3--3----------------|---------------2s4-----3--|

|---------------------------|---------------------|-5-5-5-(5)-5-5------------|





|-----------------------|-------------------------|--------------------|

|---------5h7-5h7-5h7-7-|-------------------2-0---|---7--7-7-5-7-5-----|

|---5-(5)---------------|---------------2s4-----3-|----------------3-4-|

|-5---------------------|-5-5-5-(5)-5-5-----------|-5------------------|





|--------------------7-|--------10s9-(9)-7-7-7-----|---------------------7-|

|--------------7-7h9---|-----------------------7h9-|---------------7-7s9---|

|-5-x-5--5-7s9---------|-5--5s9--------------------|--5-5--5-5-7s9---------|

|----------------------|---------------------------|-----------------------|





|---------------------|-----------------------|

|---------------------|---x-3-1-(1)-0-0-0-----|

|-5-5-5-5--5-5-5-5----|-------------------3-0-|

|---------------------|-1---------------------|





1.

|-------------------------|---------------------------|

|-----3-(3)-1-1-----------|---x-3-(3)-x-1-(1)-0-0-----|

|---------------0-0-0-3-0-|-----------------------3-0-|

|-1-x---------------------|-1-------------------------|





2.

|--------------------------||-------------------------|----------------------||

|---3-3-(3)-1-1-----------o||-----x-3-1-(1)-0-0-0-----|-----x-3-1-3-3-3-5-5--||

|-------------------3-0---o||---------------------3-0-|----------------------||

|-1-------------3s5-----1--||-1-1---------------------|-1-1------------------||





Verse 3

|-------------------------|----------------------------|

|-----7--7-5-------7--7-5-|-------7--5-7-5-3---3-5---5-|

|-0-0--------0-0-0--------|-0-0-0------------5-----7---|

|-------------------------|----------------------------|





|---------------------------|

|-----7--7-5-------7--7-5---|

|-0-0--------0-0-0----------|

|---------------------------|





|------------------|-----------------------|-------------------------|

|---7--x---3-3-5-5-|-----7--x-5-----7--x---|-----7s9s7-x-7-3-3-----5-|

|-0------0---------|-0-0--------0-0------0-|-0-0---------------3s5---|

|------------------|-----------------------|-------------------------|





|-----------------|--------------------------|

|---7--5---7--x-5-|---7--x-5-7-7-7-7-7-7-7-5-|

|-0------0--------|-0------------------------|

|-----------------|--------------------------|





|------------------------5-|-----5----3-2---2-----|----------------------5--|

|------------------5-5-7---|--------5-----5---5-2-|----------------5-5h7----|

|-3-3-3-3--3-3-5s7---------|-3-x------------------|-3-x-3--3-3-5s7----------|

|--------------------------|----------------------|-------------------------|





|-----5----3--2-------|----------------0-0-2-|----------------------------|

|---5----5------5-0-2-|-----7--------2-------|-------------------2-2-0----|

|-3-------------------|-0-x----0-2s4---------|-0-x-0-(0)-x-0-2s4-------3--|

|---------------------|----------------------|----------------------------|





|---------------------------|--------------------|

|-------------------2-5h7-7-|-----2--0-0---------|

|-0-x-0-(0)-x-0-2s4---------|-0-0--------3-0-0---|

|---------------------------|------------------3-|





|--------------------5-|-----5--0-7-8-9-----5-----|-------------------------|

|--------------5-5h7---|---x------------5-7---7-5-|-------------------5-3-2-|

|-3-3-3--3-5s7---------|-3------------------------|-3-x-3-(3)-3-3-5s7-------|

|----------------------|--------------------------|-------------------------|





|-----5----3---2---------|---------------------0-2-|---------------------------|

|---5----5---5---5-5-2-2-|-------------------2-----|-------------------2-2-0---|

|-3----------------------|-0-x-0-(0)-0-0-2s4-------|-0-x-0-(0)-x-0-2s4-------3-|

|------------------------|-------------------------|---------------------------|





|-----------------------------|----------------------|

|-------------------2-5h7-7-7-|-----2--0-0-----------|

|-0-x-0-(0)-0-0-2s4-----------|-0-0--------3-3-0-0-0-|

|-----------------------------|----------------------|





|-------------------------|-------------------------|------------------9-10-|

|-------------------7-7-9-|-------------------7-----|--------------7-7------|

|-5-5-5-(5)-5-5-7s9-------|-5-5-5-(5)-5-5-7s9-------|-5-x-5--5-7s9----------|

|-------------------------|---------------------5-7-|-----------------------|





|-11-----7-----|-------------------------|-------------------------|

|-----7--------|---x-3-(3)-1-1-0-0-0-----|-----3-------------------|

|--------------|---------------------3-0-|---3----x-0-3-3-3h5-3-5--|

|--------------|-1-----------------------|-1-----------------------|





|------------------------|-----------------------------|

|-----3--x-1-(1)---------|-------------------3-3s5-5-5-|

|---3------------3h5-3-0-|-----0-(0)-x-3-3s5-----------|

|-1----------------------|-1-x-------------------------|





|------------------------------|

|-7-7-7-(7)-5-6-7-7-------5-6--|

|-------------------0-(0)------|

|------------------------------|





|---------------------|-----------------------------|----------------------|

|-7-------7-7-5-3--5--|-----7-(7)-7-5-----7-(7)-7-5-|---7-(7)-7-7-5-3--5---|

|---0-(0)-------------|-0-0-----------0-0-----------|-0--------------------|

|---------------------|-----------------------------|----------------------|





|-------------------------|-----------------------|

|-7-7-(7)-7-5---7-(7)-7-5-|---7-(7)-7-7-5-3---5---|

|-------------0-----------|-0---------------3-5-0-|

|-------------------------|-----------------------|





|-------------------------|---------------------------||

|---7-(7)-7-5---7-(7)-7-5-|---7-(7)-7-5-7-5-----------||

|-0-----------0-----------|-0---------------7-5-3-3-0-||

|-------------------------|---------------------------||





Bridge

|-----------|------------|-----------|

|-----------|------------|-----------|

|-----------|------------|-----------|

|-1------0--|-1------0-0-|-1------0--|





|-----------|-----------------------------|-------------7s9-7s5-|

|-----------|-----7-(7)-7-5-----7-(7)-7-5-|-----7-7-7-5---------|

|-----------|-0-0-----------0-0-----------|-0-0-----------------|

|-1------3--|-----------------------------|---------------------|





|-----------------------------|-------------------|

|-----7-(7)-7-5-----7-7-7-5h7-|---7-(7)-7-5-3--5--|

|-0-0-----------0-0-----------|-0-----------------|

|-----------------------------|-------------------|





|--------------|---------------|---------------|

|--------------|---------------|---------------|

|--------------|---------------|---------------|

|-1------(1)-0-|-1----(1)-1--0-|-1----(1)-1--0-|





|---------------|-------------------|

|---------------|---7--7-5---7--7-5-|

|---------------|-0--------0--------|

|-1----1-0-1-3--|-------------------|





|------------------|-------------------|

|---7--7-5-3--5s=7-|---7--7-5---7--7-5-|

|-0----------------|-0--------0--------|

|------------------|-------------------|





|-----5-----------|------------|-------------|

|---7---7-5-3--5--|------------|-------------|

|-0---------------|------------|-------------|

|-----------------|-1----3--0--|-1----3--0---|





|------------|---------------||

|------------|---------------||

|------------|---------------||

|-1----3--0--|-1----3--0-0-0-||





Second Theme

||--------7-(7)---7-|------7-(7)--(7)-----|-7s9--7-7-(7)------|

||o-----------------|-----------------7h9-|----------------9--|

||o-5-5-5-----------|-5-5-----------------|-------------------|

||------------------|---------------------|-------------------|





|---------------------|-----7-(7)--(7)-----|

|-7-7-5---------------|----------------7-9-|

|-------5-(5)---------|-5------------------|

|-------------5h7-5-7-|--------------------|





|-7---7----7-(7)----|-7----------------------||

|---9----9----------|---9-7-(7)-------7------||

|-------------------|-----------5-(5)---5S===||

|-------------------|------------------------||





Verses 4 and 5

halftime feel Q=59

|----------------|------9----------9s=2-|-9-9-9-9-7s9-9-7-9s12s=7-|

|----------------|--------10-12-10------|-------------------------|

|-0------(0)-0-2-|-3--------------------|-------------------------|

|----------------|----------------------|-------------------------|





|----------------9-----------|------------------5-----------|

|----------10-10---10--------|----9--9p7-9--9p7---9-7---7h9-|

|----------------------5-3-2-|-0----------------------9-----|

|-8----(8)-------------------|------------------------------|





|-5--7-9-9-5-4-5-(5)-(5)-----5---7-10-|-9--12-12-12p11-12s9-(9)----------|

|------------------------5s7---7------|----------------------------14s12-|

|-------------------------------------|-------------------------12-14s12-|

|-------------------------------------|----------------------------------|





|----9-12-(12)--(12)-------------------|--------------------------------|

|-10---10-(10)--(10)-10-12-10----------|---------------14--14-(14)-11---|

|-----------------------------10h11-12-|-10h11h12-(12)------------------|

|--------------------------------------|--------------------------------|





1. 2.

|-------7-(7)s9-|-9--(9)-7-9-9--9-9------||-----------------------||

|---------------|-----------------------o||---------7-------------||

|-3-------------|-------------------0-2-o||-5s7-0-0---5-7-0-0-0-0-||

|---------------|------------------------||-----------------------||





Bridge

Q=118

|---------------7-|-------------7-7---|

|-----------------|-----------7-----7-|

|-5---5-(5)-5-5---|-5---5-(5)---------|

|-----------------|-------------------|





|-----------------|----------------------------|

|-------7s9-7-7S0-|-0-0-0-0-0-0-0--------------|

|-5---5-----------|---------------2-2-0-0-2-2--|

|-----------------|----------------------------|





|--------------7-7-|-----7----7-(7)--7--|---------------------||

|------------7-----|---7----7-----------|----7----------------||

|-5-5--5-(5)-------|-5------------------|-5----5-(5)-5-5------||

|------------------|--------------------|----------------7-7--||





Verse 6

Q=59

|------------------|------7p5-5-5--------|

|------------------|---------------------|

|-0------(0)-0-5h7-|-3-------------7-5-3-|

|------------------|---------------------|





|----------------------|---5-5-(5)--11s12-14-12-12s14-12s14-|

|----------------------|------------------------------------|

|-0--(0)-3s5-3-0-0-0-2-|-3----------------------------------|

|----------------------|------------------------------------|





|-14--(14)-14p12-(12)-12p11-(11)-11-11p9-(9)s2-|----------------5-4-2------|

|----------------------------------------------|----------5-4-5-------5-5--|

|----------------------------------------------|-3--(3)-3------------------|

|----------------------------------------------|---------------------------|





|------------------------|---5-5-5-5-5-7-5---5h7-||

|-7--(7)-5-5-------------|-----------------------||

|------------7-5-0-0-0-2-|-3---------------------||

|------------------------|-----------------------||





Bridge

Q=118

|----------|--------||

|----------|--------||

|-0--------|-(0)----||

|----------|--------||





Third Theme

|----------------------|-----------------------|----------------------------|

|---5--3-3-3-5-5-3h5-5-|---5-x-x-3-3s5-x-3-2-0-|---5-x--3-3h5-x-x-x-3s5-5---|

|----------------------|-----------------------|----------------------------|

|-3--------------------|-3---------------------|-3--------------------------|





|---------------------|----------------------|---------------------|

|---5-x--3-3h5-5-5s=2-|---7--5-5h7-x-0-5h7-7-|---7--5-5s7-7--------|

|---------------------|----------------------|--------------5-7-7--|

|-3-------------------|-5--------------------|-5-------------------|





|----------------------|---------------7-6---|

|---7--5-5h7-x-0-5h7-7-|---7-x--5-5h7------7-|

|----------------------|---------------------|

|-5--------------------|-5-------------------|





|-----------------------------|------------------7p0h4-|

|---5-x-x-3-3h5-5-5-0-3h5-----|---5-x--3-3h5-5---------|

|-------------------------3h5-|----------------5-------|

|-3---------------------------|-3----------------------|





|---------------5-5-5-|-4-4--------------------|

|---5--3-3h5--3-------|-----5-5-(5)-3-3-3-5-5--|

|---------------------|------------------------|

|-3-------------------|------------------------|





|------------------------7-7-|-6--------------7-6---|

|---7-x--5-5h7-x-x-0-5-7-----|---7--5-5-5-7-7-------|

|----------------------------|----------------------|

|-5--------------------------|--------------------5-|





|-----------------------7-7-|-6----------7p6-------|

|---7-x--5-5--x-x-x-5h7-----|---7-x--5-5-----7-5---|

|---------------------------|--------------------7-|

|-5-------------------------|----------------------|





|---------5-5-5h7-x-x-x-5-----|---7--5-5--5-0-7-5-----|

|-------------------------7-5-|-------------------7-7-|

|-5-5-5-5---------------------|-5---------------------|

|-----------------------------|-----------------------|





|---7-x--5-5--x-x---5-----|---7--5-x-5-------------|

|-----------------5---5-5-|------------5-5-5-7-7-7-|

|-5-----------------------|-5----------------------|

|-------------------------|------------------------|





|------------------------7-7-|

|---7-x--5-5h7-x-x-0-5-7-----|

|----------------------------|

|-5--------------------------|





|-6------------------7-9-9-9-|------------------------7-7-|

|---7-x--5-5-5-7-7-7---------|---7-x--5-5h7-x-x-0-5-7-----|

|----------------------------|----------------------------|

|----------------------------|-5--------------------------|





|-6------------------7-9-9-9-|---7--5-5h7-7---5h7-7-|

|---7-x--5-5-5-7-7-7---------|--------------7-------|

|----------------------------|-5--------------------|

|----------------------------|----------------------|





|---7--5-5h7-7---5h7-7-|---7--5-5h7-7---5h7-7-|---7--5-5---5h7----||

|--------------7-------|--------------7-------|----------------7--||

|-5--------------------|-5--------------------|-5-----------------||

|----------------------|----------------------|-------------------||





Bridge

|-----------------|-8h11p8-11----8----------|

|-----7-----------|------------9----4-4-4---|

|---7-------------|-----------------------6-|

|-5------7-(7)----|-------------------------|





|-----------------|-----------------------------|------------------|

|---7--7s9-(9)----|-9-9-9--x-9-9-9--------------|---7--7s9-(9)-----|

|-----------------|----------------9-9-7--x-9s6-|------------------|

|-5---------------|-----------------------------|-5----------------|





|-11------11------11-----|--------------------|---------8-8-----------------||

|----9-9-----9-9-----9-9-|--------------------|-9-9-9-9-----9-9-9-9---------||

|------------------------|--------------------|---------------------9-9-9-9-||

|------------------------|-5-5-(5)-5s7-(7)----|-----------------------------||





Chorus

|-------------------|------------------------|

|---5--3-3-5--3-3-5-|---5--3-3-3-5-5-3-5-5-5-|

|-------------------|------------------------|

|-3-----------------|-3----------------------|





|--------------------|------------------------|

|---5--3-3-5-x-3-5-5-|---5-x--3-3-3-5-0-5-6-7-|

|--------------------|------------------------|

|-3------------------|-3----------------------|





|-----------------------|----------------------|

|---7-x--5-5--x-5-5h7-7-|---7--5-5-5-7-5-7-5-7-|

|-----------------------|----------------------|

|-5---------------------|-5--------------------|





|----------------------|------------------------|

|---7--5-5-5-7-5-7-5-7-|---7--5-5-5-----5-------|

|----------------------|------------5-5---7-5-3-|

|-5--------------------|-5----------------------|





|----------------------5-5-|-4------------------|

|---5--3-3s5-x-x-x-3h5-----|---5-x--3-3---3h5-5-|

|--------------------------|--------------------|

|-3------------------------|--------------------|





|----------------------5-5-|-4--------------3h4-------|

|---5--3-3s5-x-x-x-3h5-----|---5-x--3-3-3h5-----5-3-5-|

|--------------------------|--------------------------|

|-3------------------------|--------------------------|





|------------------------7-7---|

|---7-x--5-5h7-x-x-0-5-7-------|

|------------------------------|

|-5----------------------------|





|-6--------------------------|------------------6-6-7-7--|

|---7-x--5-5h7-x-x-0-5h7-7-7-|---7-x--5-5h7-7-7----------|

|----------------------------|---------------------------|

|----------------------------|-5-------------------------|





|-6------------------|---7-x--5-5h7---x-5h7-7-|

|---7--5-5h7-7-7-5---|------------------------|

|------------------7-|-5----------------------|

|--------------------|------------------------|





|---7--5-5h7-7-9-7---|---7--5-5------------|

|-5----------------7-|------------------12-|

|--------------------|-5----------10s12----|

|--------------------|---------------------|





|-12p11-------------------|

|-------12-10-9--10--9----|

|----------------------12-|

|-------------------------|





|------------------------7-7-|-6--------------7-6-----|

|---7-x--5-5h7-x-x-0-5-7-----|---7--5-5-5-7-7-----7---|

|----------------------------|------------------------|

|-5--------------------------|------------------------|





|---------------------7-7-|-6---------------------|

|---x-x--5-5--5-0-5s7-----|---7-7-5-7-7-7-(7)-5---|

|-------------------------|---------------------7-|

|-5-----------------------|-----------------------|





|---7--5-5h7-7-5h7-7-|---7--5-5---5--7-5---|

|--------------------|----------7--------7-|

|-5------------------|-5-------------------|

|--------------------|---------------------|





|---7--5-5---5-0-5-----|---7-x--5-5--0-0-7-5---||

|----------7-------7-5-|---------------------7-||

|-5--------------------|-5---------------------||

|----------------------|-----------------------||





Outro

|---------------------|--8-11-11--14-14-14-14-|------------------------|

|---7--7s9-(9)-9-9-7--|-----------------------|---7--7s9-(9)-9-9-(9)---|

|---------------------|-----------------------|------------------------|

|-5-------------------|-----------------------|-5----------------------|





|-----------11--11----------|---------------|------------------------------|

|-9-9-11s13--------11s13-9--|---x-7--7--9---|-9-7-7------------------------|

|---------------------------|---------------|-------9-9-6-(6)-9-6-9-9-9-6--|

|---------------------------|-5-------------|------------------------------|





|-----------------|----11-11-11-11-11-11-(11)-11-11-11-11--|------------------|

|---7--7s9-(9)----|-13-13-13-13-13-13-13-(13)-13-13-13-13--|---7--7s9-(9)-----|

|-----------------|----------------------------------------|------------------|

|-5---------------|----------------------------------------|-5----------------|





|--------------------|-------------------------|---------------------|

|--9-7-9---7h9-9-7---|---------7s9-(9)-9-9--7--|--9-7-9---7h9-9-7----|

|--------------------|-------------------------|---------------------|

|--------------------|-5-5-(5)-----------------|---------------------|





|-------------------|--8----7-8---|-------------------|

|-------------------|-------------|-------------------|

|-------------------|-------------|-------------------|

|-5---5--5-7-(7)----|-------------|-5---5--5-7-(7)----|





|------------------------11s4--|

|-7---9--x-7s9-(9)-9-9-9-------|

|------------------------------|

|------------------------------|





|--------------------------|---11---11----11s13-13-11---|

|--------7s9-(9)-9-9-9---7-|-9----9-----9---------------|

|--------------------------|----------------------------|

|-5-x-4--------------------|----------------------------|





|--------------------|-------------------|--------------------------|

|--------7s9-(9)--0--|-5s9---9-9----x----|-7------7s9-(9)-9-9-------|

|--------------------|-----------9-------|---------------------9s12-|

|-5---5--------------|-------------------|-----5--------------------|





|---------14----------------|----------------0-0---|

|-16-------------16-----16--|--------7s9-(9)-------|

|----14-x----x-x----x-x-----|----------------------|

|---------------------------|-5---5----------------|





|-------------14s21-21-16s24---|

|-7s9-9--9s11------------------|

|------------------------------|

|------------------------------|





|------------------9s11-------|

|--------------9-9------13s16-|

|-----------------------------|

|-5-x-5--7-(7)----------------|





|-------------------------|------------------------|

|-13---13-----12s11s13--8-|-----------7s9-(9)-9----|

|----------12-------------|-0-x-0-(0)--------------|

|-------------------------|------------------------|





|-8-----8-8-8--x-x---|---------|---------|-----*|

|---9-x--------------|---------|---------|-----*|

|--------------------|---------|---------|-----*|

|--------------------|---------|---------|-----*|





Band: Led Zeppelin

Song: All My Love



Standard tuning



G|----------------|----------------|----------------|----------------|

D|----------------|---------------5|7-----7-5-----5-|5--------------5|

A|----------------|--------------7-|----------------|--5---5-5-----7-|

E|----------------|----------------|----------------|----------------|



G|----------------|----------------|----------------|----------------|

D|7-------5-----7-|---------------5|7-------5-------|---------------5|

A|---------------5|5-5---5---5---7-|----------------|5-5-5-5---5-5-7-|

E|----------------|----5-----------|----------------|----------------|



G|------5---------|----------------|----------------|----------------|

D|7------75-5-----|---------------5|7-------5-------|---------------5|

A|----------------|5-----5---7-8-7-|----------------|55--5-5---5-8-7-|

E|----------------|----------------|----------------|--5-------------|



G|----------------|----------------|----------------|----------------|

D|7-------5-------|---------------5|7-------5-------|---------------5|

A|----------------|5-5-----5-5-5-7-|----------------|5-5-5-5---5-5-7-|

E|----------------|----------------|----------------|-----------5----|



G|----------------|----------------|------5---------|--7-7-----------|

D|7-------5-------|---------------5|7------75-----7-|---------------5|

A|----------------|5-------5-5-577-|---------------5|5-----5---5-5-7-|

E|----------------|----------------|----------------|-------------5--|



G|----------------|----------------|------5---------|----------------|

D|7-------5-------|5--------------5|7------75-----7-|----------------|

A|----------------|--5-5-5-5-5-5-7-|---------------5|55--5-5-5-5---5-|

E|----------------|----------------|----------------|--5---------5---|



G|---------------5|4---------------|------5---------|--------------4-|

D|-------------25-|--------5-3-----|7------75-----5-|3-3-3-3---5-7---|

A|3-------3---3---|------------5-3-|----------------|----------------|

E|----------3-----|----------------|----------------|----------------|

All my love.....



G|-------------5--|4---------2-----|----------------|----------------|

D|-----------5----|-------------5-5|7-----7-5-5---55|3-3-------------|

A|3-----3-7-7-----|--------------7-|-------5--------|----3-----------|

E|----------------|----------------|----------------|------1---------|



G|----------------|----------------|------5---------|--7-7-----------|

D|7-------5-------|---------------5|7------75-----7-|---------------5|

A|----------------|5-------5-5-577-|---------------5|5-----5---5-5-7-|

E|----------------|----------------|----------------|-------------5--|



G|----------------|----------------|------5---------|----------------|

D|7-------5-------|5--------------5|7------75-----7-|----------------|

A|----------------|--5-5-5-5-5-5-7-|---------------5|55--5-5-5-5---5-|

E|----------------|----------------|----------------|--5---------5---|



G|---------------5|4---------------|------5---------|--------------4-|

D|-------------25-|--------5-------|7------75-----5-|----------5-7---|

A|3-------3---3---|----------7-5---|----------------|8-8-8-8---------|

E|----------3-----|--------------8-|----------------|----------------|



G|----------------|----------------|----------------|----------------|

D|--------------10|9---------7--5-5|7-----7-5-5---55|3-3-------------|

A|--------7-78-8--|--------------7-|-------5--------|----3---------11|

E|8-----8---------|----------------|----------------|------1---------|



G|----------------|----------------|----------------|----------------|

D|----------------|----------------|----------------|----------------|

A|1-----111-----11|1---3-3---333-11|1-----111-----11|1---1-1------1--|

E|--111-----111---|--1-------------|--111-----111---|--1-------1-3-3-|



G|----------------|----------------|----------------|------------1412|

D|----------------|------------2-34|5---------------|----------------|

A|1-----111-----11|1---5-5---5--3--|----------------|----------------|

E|--111-----111---|--1-------------|----------------|----------------|



G|----------------|----------------|------97--------|----------------|

D|----------------|----------------|7-------5-----7-|---------------5|

A|----------------|----------------|----------------|5-5---5---578-7-|

E|----------------|----------------|---------------3|----5-----------|



G|----------------|----------------|------4---------|------------7---|

D|7---7--7555---5-|420-0------0-0--|7------75-5---7-|-------------7-7|

A|------7--------5|------2-0-2---20|---------------5|5-5---5---5---7-|

E|-----5----------|----------------|----------------|----------------|



G|------4---------|----------------|----------------|----------------|

D|7------75-----7-|----------------|----------------|---------------5|

A|---------------5|55--5-5-5-5-5-5-|--------------34|5-----578-----7-|

E|----------------|--5-------------|5-----5-3-3-----|----------------|



G|------5---------|----------------|------5------4--|----------------|

D|7------75-----5-|--------------57|7------75-----75|---------------5|

A|---------------5|5-5--5--5-5-7---|----------------|5-5-5-5-578-577-|

E|----------------|------5---------|----------------|----------------|



G|----------------|----------------|----------------|----------------|

D|7---------------|----------------|----------------|----------------|

A|--------------34|5-5-5-5-5-5-5-11|1-----111-----11|1---3-3---333-11|

E|--------3-3-----|----------------|--111-----111---|--1-------------|



G|----------------|----------------|----------------|----------------|

D|----------------|----------------|----------------|--------------34|

A|1-----111-----11|1---3-3---1--1--|1-----111-----11|1---5-5---5-7---|

E|--111-----111---|--1---------3-3-|--111-----111---|--1----------8--|



G|----------------|----------------|----------------|----------------|

D|5---------------|------------1412|----------------|----------------|

A|----------------|----------------|----------------|----------------|

E|----------------|----------------|----------------|----------------|



G|----------------|----------------|------5---------|--7-7-----------|

D|7-------5-------|---------------5|7------75-----7-|---------------5|

A|----------------|5-------5-5-577-|---------------5|5-----5---5-5-5-|

E|----------------|----------------|----------------|-------------5--|



G|----------------|----------------|------5---------|----------------|

D|7-------5-------|5--------------5|7------75-----7-|----------------|

A|----------------|--5-5-5-5-5-5-7-|---------------5|55--5-5-5-5---5-|

E|----------------|----------------|----------------|--5---------5---|



G|---------------5|4---------------|------5---------|--------------4-|

D|-------------25-|--------5-------|7------75-----5-|----------5-7---|

A|3-------3---3---|----------7-5---|----------------|8-8-8-8---------|

E|----------3-----|--------------8-|----------------|----------------|

All my love.....



G|----------------|----------------|----------------|----------------|

D|--------------10|9---------7--5-5|7-----7-5-5---55|3-3-------------|

A|--------7-78-8--|--------------7-|-------5--------|----3-----------|

E|8-----8---------|----------------|----------------|------1---------|



(Step up)

G|---------------7|6---------------|------7---------|------------4-6-|

D|-------------47-|--------7-4-----|9------97-----7-|5-5-5-5---7-----|

A|5-------5---5---|------------7-5-|----------------|----------------|

E|----------5-----|----------------|----------------|----------------| 6X

All my love.....





I'm Gonna Crawl - Led Zeppelin



G|----------------|----------------|----------------|----------------|

D|----------------|----------------|----------------|----------------|

A|----------------|----------------|----------------|----------------|

E|----------------|----------------|----------------|----------------|



2/4 time 4/4 time

G|----------------|--------|----------------|----------------|----------------|

D|----------------|--------|----------------|----------------|----------------|

A|----------------|--------|----------------|----------------|----------------|

E|----------------|--------|----------------|----------------|----------------|



12/8 time

G|------------1-----0-----|------------------------|------------1-----0-----|

D|------------------------|------------------------|------------------------|

A|3-----------------------|3--------3--------------|3---3-----3-------------|

E|------------------------|-----------4-----3------|------------------------|



G|------------------------||------------1-----0-----|------------1-----0-----|

D|------------------------||------------------------|------------------------|

A|3---3-----3-------------||3-----------------------|3---3-----3-------------|

E|------------4-----3-----||------------------------|----------------------3-|



G|------------1-----0-----|----------0-1-----0-----|------------------------|

D|------------------------|--------2---------------|------------------------|

A|3---------3-------------|3---3------------------3|0---0-----------------3-|

E|------------------------|------------------------|----------3-1-----------|



G|------------------------|------------------------|------------------------|

D|------------------------|------------------------|------------------------|

A|0-------0---------------|0---0-------------------|0---0-------------------|

E|----------3-1---------3-|--------0-3-1---------3-|--------0-3-1-1-1-1-1-1-|



6/8 time 12/8 time

G|------------|------------------------|----------0-1-----0-----|

D|------------|------------------------|--------2---------------|

A|------------|3-------------------0-2-|3---3-------------------|

E|1111--------|------------4-----3-----|------------------------|



G|------------------------|------------------------|------------1-----0-----|

D|------------------------|------------------------|------------------------|

A|3---------3-------------|3---3-----3------------2|3---------3-------------|

E|------------4-----3-----|------------4-----3-----|------------------------|



G|------------1-----0-----|------------------------|------------------------|

D|------------------------|------------------------|------------------------|

A|3---3------------------3|0---0-------------------|0---0-------------------|

E|------------------------|----------3-1---1---3-4-|----------3-1---1---3-4-|



6/8 time

G|------------------------|------------------------|------------|

D|------------------------|------------------------|------------|

A|0---0-------------------|0---0-------------------|------------|

E|--------0-3-1---1---3-4-|----------3-1-1---1-1---|1-1---------|



12/8 time

G|--------------------9-7-|------------------------||------------------------|

D|------------------7-----|5-----------------------||------------------------|

A|5-----5---0-5-----------|------5-----------------||------------------------|

E|------------------------|------------3-----3-3034||55555-55555-55555-5-----|

Ev'ry little bit...



G|------------------------|------------------------|------------------------||

D|-----------53-----------|------------------------|------------3-----------||

A|----0---0-3-----------0-|00000-00000-00000-0-----|----------3-------------||

E|1-----------------------|--------------------3-1-|1-----------------------||



Guitar Solo

G|----------0-1-----0-----|------------------------|----------0-1-----0-----|

D|--------2---------------|------------------------|--------2---------------|

A|3-----------------------|3-----------------------|3---3-------------------|

E|------------------------|------------4-----3-----|------------------------|



G|------------------------|------2-----------------|-------2----------------|

D|------------------------|------------------------|------2-----------------|

A|3---3-----3-------------|0-------0-----------0-3-|0---03--------------3---|

E|------------4-----3--034|----------3-1---1-13----|---------3-1---1-55---3-|

\3/



6/8 time

G|------------------------|------------------------|------------|

D|------------------------|------------------------|--3-3-------|

A|0---0---0---------------|------------------------|-----30--003|

E|----------3-1-------1-34|5---55--5-3-111---111---|1------1----|

\3/

12/8 time

G|----------7-----------0-|0-------0-0-------------|------------------------|

D|0-----0--7-70-----0-02-2|-------0----------5-----|-------------------2----|

A|------------------------|--------------2-5-------|00000-00000-00000-0-30--|

E|------------------------|------------3-------3-0-|----------------------3-|



v|----------------------02|------------------222---|------------------------||

D|------3-----------3-----|---------------------2--|------3-----------------||

A|---------30-------------|00000-00000-00000-----0-|----------0-3-----------||

E|1-----------1---1-------|------------------------|11----------------------||



G|--------0-1-----0-------|----------0-1-----0-----|------------1-----0-----|

D|------2-----------------|--------2---------------|--------2-0-------------|

A|3-----------------------|3-----------------------|3---3-------------------|

E|------------------------|------------------------|------------------------|



G|------0----01-----0-----|----------0-1-----0-----|----------0-1-----0-----|

D|----------2-------------|--------2--------1------|--------2---------------|

A|3-----------------------|3---33------------------|3-----------------------|

E|------------------------|------------------------|------------------------|



G|----------------8-------|------------------------|----------0-1---1-0-0-0-|

D|--------3-5-6----65---5-|------2-2-5-6-----5-----|--------2-----1---------|

A|3-----------------------|3------0----------------|3-----------------------|

E|------------------------|------------------------|------------------------|



G|------------------------|--------5---------------|------------------------|

D|--------5---------------|----------5-------------|------------------------|

A|3---3-----3-------------|3----------------------2|3---3-----3-------------|

E|------------4-----3-----|------------4-----3-----|-----------44-----3-3-3-|



G|------------------------|------5-----------------|--------5---------------|

D|------------------------|------------------------|------------------------|

A|3-3-3-3-3-3------------2|3---3---3-1-------------|3---3-----3-------------|

E|------------4-4-4-3-3-3-|------------4-----3-----|------------4---4-3-3-3-|



G|------5-----------------|------5-----------------|------0-----------------|

D|------------------------|------------------------|------------------------|

A|3---3-----3-------------|3---3-----3------------2|33333-----1-------------|

E|------------4---4-3-3-3-|------------44444-33333-|------------44444-3--33-|



G|------5-----------------|----------------1-----3-|------------------------|

D|------------------------|--------------------55-5|--------5---------------|

A|333333----31------------|33333-3---1-------------|3---------31------------|
Get this song at amazon.com      Ebay     Ringtones Ringtones  


Learn to play: Songwriting, Piano, Harmonica, Guitar
More Led Zeppelin lyrics available at Muzikum

Related Led Zeppelin Tabs

Jennings Farm Blues tabs
Hot Dog Bass tabs
Black Dog2 tabs
Bron Y Aur Stomp2 tabs
Yallah tabs
Walters Walk Intro tabs
Stairway To Heaven tabs
Friends tabs
Thank You tabs
Gallows Pole ( Mandolin ) tabs
Hey Hey tabs
Ramble On (detailed Solo) tabs
Thats The Way tabs
Street Corner Girl Bass tabs
The Ocean (live At Madison Square Garden) tabs
Dyer Maker tabs
Dazed And Confused Live tabs
Achilles Last Stand Remasters tabs
Ten Years Gone tabs
Bring It On Home Bass tabs


Guitar Tabs









All tabs are property and copyright of their owners. All tabs provided for educational purposes only. Privacy Policy, DMCA