Led Zeppelin

In The Light 4 String Bass Tabs



More from Led Zeppelin

Led Zeppelin Tabs
Led Zeppelin Chords
Led Zeppelin Bass
Led Zeppelin Lyrics



G-|---------------------------------------------------------------------------|
D-|--7--6----5----------------------------------------------------------------|
A-|-------------7----6--5-----------------------------------------------------| 4X
E-|--------------------------7--5---------------------------------------------|


G-|------------------------7----------------------------------7---------------|
D-|--------7----5--7--4-3-----7--5--7---------7----5--7--4-3-----7--5--7------|
A-|--0--0-------------------------------0--0----------------------------------|
E-|---------------------------------------------------------------------------|

G-|--------------------------6--7--9--11--13--14------------------------------|
D-|----------------4--6--7----------------------------------------------------|
A-|--0---4--5--7--------------------------------------------------------------|
E-|---------------------------------------------------------------------------|

This is my first attempt at a tab and doing it for a 4 string when it was originally
played on a six makes it a little harder for me. This is what it sounds like
to me and i hope it helps someone else out. enjoy erictalley1995@yahoo.com



Get this song at amazon.com      Ebay     Ringtones Ringtones  


Learn to play: Songwriting, Piano, Harmonica, Guitar
More Led Zeppelin lyrics available at Muzikum

Related Led Zeppelin Bass Tabs

Kashmire bass
White Summer/black Mountain Side bass
All My Love bass
Babe, I'm Gonna Leave You bass
Sick Again bass
Dryer Maker bass
Carouselambra bass
Boogie With Stu bass
How Many More Times Intro bass
Stairway To Heaven bass
We're Gonna Groove bass
Lemon Song Bass Solo bass
South Bound Saurez bass
Rock And Roll Correct Version bass
Rock & Roll bass
The Crunge bass
I Can't Quit You Baby bass
You Shook Me bass
Out On The Tiles bass
Ramble On bass


Guitar Tabs









All tabs are property and copyright of their owners. All tabs provided for educational purposes only. Privacy Policy, DMCA