Led Zeppelin

In The Evening Bass Tabs



More from Led Zeppelin

Led Zeppelin Tabs
Led Zeppelin Chords
Led Zeppelin Bass
Led Zeppelin Lyrics



LED ZEPPELIN
In The Evening


Standard Tuning

G|----------------|
D|----------------|
A|----------------|
E|----------------| 19X
The intro part In the eve - - ning....


G|----------------|------------0---|----------------|----------------|
D|2-2-2-2-0-0-----|----------2---2-|--2-2-2-0-0-----|----------2-2---|
A|--------------0-|--------4-------|--------------0-|------0-4-------|
E|----------------|----------------|0---------------|----------------|

G|----------------|------------0---|----------------|----------------|
D|2-----2-0-0-----|----------2---22|----2---0-0-----|--------11--11--|
A|--------------0-|0-0-0-0-4-------|--------------0-|0-0-0---0---0---|
E|--0-------------|----------------|0---------------|----------------|

G|----------------|------------0---|----------------|--------2-2-2---|
D|----2---0-0-0---|----------2---22|--2-2---0-0-----|----------------|
A|--------------0-|0-0-0-0-4-------|--------------0-|0-0-0-----------|
E|0-0---0---------|----------------|0-----0---------|----------------|

G|----------------|------------0---|----------------|----------------||
D|----2---0-0-0---|----------2---22|--2-2-2-0-0-0---|----------------||
A|--------------0-|0-0-0-2-4-------|--------------0-|0-0-0-0-0-0-0-00||
E|0-0---0---------|----------------|0---------------|----------------||

G|----------------|----------------|----------------|----------------|
D|0-0---0---------|0-0-----0-----0-|--00------------|0-0---0-------0-|
A|-------20-000-2-|------0---0-----|-----02-0-0--020|----------0-----|
E|----------------|----2-----------|----------------|----------------|
Oh, I need your love....

G|----------------|----------------|----------------|----------------||
D|--0-------------|0-0---0-------0-|--0-------------|0-----0---------||
A|------2-0-0--020|----------0-----|-----02-0-0--020|--0-------------||
E|-------2--------|----------------|-------2--------|----------------||

D.S.
G|----------------|--------0-2-020-|----------------|--2-2-2-----0---|
D|--2-2---0-0-----|---------------2|--2-2-2-0-0-----|--------2-2---2-|
A|--------------0-|--0-0-0---------|--------------0-|----------------|
E|0-----0---------|----------------|0---------------|----------------|
3/

G|----------------|--------------0-|----------------|2---4-----9-12--|
D|----2-2-0-0-----|------------2---|2-2-2-2-0-0-----|--------11----11|
A|--------------0-|--0-2-2-4-4-----|--------------0-|-0---2----------|
E|0-0-------------|----------------|----------------|----------------|

G|-------------02-|------------0---|--------------2-|--2-2-----91290-|
D|----2-2-0-0-2---|----------2--22-|--2-2---0-0-----|--------11------|
A|----------------|0-0-0-0-4-------|----------------|0---------------|
E|0-0-------------|----------------|0-----0---------|----------------|

G|--------------2-|2---2-------0---|----------------|2-2-2-2---------||
D|----2-2-0-0-2---|----------2--222|--2-2---0-0-----|----------------||
A|----------------|--0--0234-------|--------------00|--------0-0-0-0-||
E|0-0-------------|----------------|0-----0---------|----------------||

G|----------------|0-------0-------|----------------|02--0-0---------|
D|----------0-2-0-|--3-2-0---0-----|----------0-2-0-|----------2-----|
A|---00-1-2-------|----------------|---00-1-2-------|--------------0-|
E|3-3-------------|--------------3-|----------------|----------------|
Oh, I need your love....

to Coda
G|----------------|24--2-2---------|----0-----------||----------------||
D|----------2-4---|----------2-----|------4-2-----2-||4---------------||
A|--222-3-4-------|--------------0-|--0-------3-4---||----2-----------||
E|----------------|----------------|----------------||--2-------------||

G|----------------|----2-----9-129-|----------------|2-------2--0----|
D|----2---0-0-----|--------11------|----2---0-0-----|--------------4-|
A|--------------0-|--0-------------|--------------0-|----------------|
E|0-----0---------|----------------|0-0---0---------|--33--2---------|

G|----------------|22--2---4---46--|----------------|--2-------------|
D|2---2-2-0-0-----|----------------|--2-2---0-0-7---|--------------02|
A|--------------0-|----------------|----------------|0---0-0-0-0-0---|
E|--0-------------|----------------|0-----0---------|----------------|

G|---------------2|-2--2-------0---|---------------2|--------------0-|
D|----2-2-0-0-0---|----------2---2-|--2-2---0-0-----|------0--1--2--2|
A|--------------0-|--------4-------|--------------0-|---4------------|
E|0-0-------------|----------------|0-----0---------|----------------|

G|----------------|---------9--1212|----------------|----------------||
D|2---2-2-0-0-7--7|--7-7-911-------|----2---0-0-7-7-|7-7-7-7-7-7-7-7-||
A|----------------|----------------|----------------|----------------||
E|--0-----------5-|----------------|0-0---0---------|----------------||

G|----------------|----------------|----------------|----------------|
D|0-0------------0|0-------------0-|--0-0-----------|0-0---0-------0-|
A|-----02-0-0-2-2-|--2-0-2-0-0-----|-----02-0-0---02|----------0-----|
E|-------2--------|----------------|-------2--------|----------------|

G|----------------|----------------|----------------|----------------||
D|--0-----------0-|0-0-----0-----0-|--0-------------|------0---------||
A|-----02-0-0-----|----0-2---0-----|-----02-0-02-20-|--0-------------||
E|-------2--------|----------------|-------2--------|----------------||

Guitar Solo
G|----------7---6-|----------------|--------7-7-----|----0---------0-|
D|--2-2-2-0-----7-|------------109-|----------------|--------4---2---|
A|------------5---|--0-0-0-0-10----|7-7---7-----5-0-|----------------|
E|0---------------|----------------|----------------|----------------|

G|----------7---7-|6---------------|----------------|----------------|
D|2---------------|----------------|----2---0-0-----|----------------|
A|--------5---5---|----------0-0-2-|0-------------0-|0-0-0-0-0-0-0-2-|
E|--0-0-0---------|--0-0-0---------|--0---0---------|----------------|

G|----------------|--------6-------|----------------|----0-----------|
D|2---------------|------------5---|2---2-2-0-000---|--------4-2---2-|
A|--------5-5-5---|----------------|--------------0-|0-----------4---|
E|--0-0-0-------5-|--5-5-5---------|--0-------------|----------------|

G|----------------|----------012-34|----------------|----------------||
D|--2-2---0-0-----|------012-------|--2-2-2-0-000---|----------------||
A|--------------0-|--234-----------|--------------00|000-0-00--------||
E|0-----0---------|----------------|0---------------|--------555-5-57||

G|------7-9---1211|-9--------111214|1211------------|------11----1112|
D|----------10----|----------------|----------------|141214--1214----|
A|----10----------|----------------|----------------|----------------|
E|8---------------|----------------|----------------|----------------|

G|14--------------|--1211--1211----|----------------|----------------|
D|--141214--------|12----14----1412|1414------12----|----12----------|
A|----------------|----------------|----14--------14|1214------9---10|
E|----------------|----------------|----------------|----------------|

G|--------------9-|1416--------1416|12--------------|------12--------|
D|----------9-10--|----------------|------1214------|--1412--1210----|
A|12--------------|----------------|----------------|----------------|
E|----------------|----------------|----------------|----------------|

D.S. al Coda CODA
G|----------------|----------------|----------------|------9-12-9--9-||4---------------||
D|10--9-----------|------9-9-------|----------------|--9-11----------||----------------||
A|--------12------|--1012----12109-|12--------------|----------------||--2-2-----------||
E|----------------|----------------|----------------|----------------||----------------||

G| ----------------|----------912129|----------------|--------0-00----|
D|o----2-210-0-5-77|-7--7-7711------|--2-2-2-0-0-0---|------22----442-|
A|o----------------|----------------|--------------00|0-234-----------|
E| 0-0-------------|5---------------|0---------------|----------------|

G|--------------2-|2---0---4--7-76-|--------------2-|22--22---12--12- |
D|2-------0-0-0---|----------------|--2-2---0-0-0---|----------------o|
A|----------------|--0-------------|----------------|--0---0---------o|
E|--0-0-0---------|----------------|0-----0---------|---------------- |

Taken from The BassMasta -- http://www.tabs-database.com



Get this song at amazon.com      Ebay     Ringtones Ringtones  


Learn to play: Songwriting, Piano, Harmonica, Guitar
Also available at Muzikum: Led Zeppelin - In The Evening lyrics

Related Led Zeppelin Bass Tabs

Hot Dog bass
Dazed And Confused bass
Carouselambra bass
Black Dog bass
I Can't Quit You Baby bass
Dazed And Confused (finally Correct?) bass
Dyer Maker bass
Immigrant Song bass
The Rain Song bass
Trampled Under Foot bass
Walters Walk bass
Moby Dick bass
Your Time Is Gonna Come bass
In The Light bass
Stair Way To Heaven (correct) bass
Rock N Roll bass
Good Times Bad Times bass
Black Dog Correct bass
Achelles Last Stand bass
Crunge bass


Guitar Tabs









All tabs are property and copyright of their owners. All tabs provided for educational purposes only. Privacy Policy, DMCA