Led Zeppelin

In My Time Of Dying Bass Tabs



More from Led Zeppelin

Led Zeppelin Tabs
Led Zeppelin Chords
Led Zeppelin Bass
Led Zeppelin Lyrics




Really fun Zeppelin tune right here.. bass comes in at about 00:26.

Riff A: Intro; Play that 3 times.
|---------|
|---------|
|-0-3--5--|
|---------|


Riff B: Slidey riff thing (00:45)
|-----------------------|-------------------|
|o---------------7-----o|---------------7---|
|o-/10-0-7/9-7-0---9/--o|-/10-0-7/9-7-0---5-|
|-----------------------|-------------------|
Play the repeated bar 7 times.


Rest for about 8 bars.

Play Riff A 3 times.

Play Riff B.


Verse 2 (2:27) - Same rhythem as Riff B, but lower.
|---------------------------|------------------|
|----------------------0/7--|------------------|
|-3\2-0-2/3/5--0-3\2-0------|-3\2-0-2/3/5--0-3-|
|---------------------------|------------------|

|--------------------------|---------------------|
|----------------------0/7-|---------------------|
|-3\2-0-2/3/5--0-3\2-0-----|-3\2-0-2/3/5--0-3\-0-|
|--------------------------|---------------------|

|--------------------------|----------------------|
|----------------------0/7-|----------------------|
|-3\2-0-2/3/5--0-3\2-0-----|-3\2-0-2/3/5--0-3\--0-|
|--------------------------|----------------------|


Riff C: Gets heavy (3:50)
|----------------------------|----------------------|
|o----------------------0/7-o|o--------------------o|
|o-3-2-0-3-2-0-0-5-3-0------o|o-5---5-5----5---5-5-o|
|----------------------------|----------------------|
Each repeated bar is played 4 times. Play the whole thing 3 times
in total.


Riff D: Guitar solos 1 & 2. (4:57)
|--------------------------|
|--------------------5-7-7-|
|-3-2-0-0-0-0-5-3-0--------|Repeated 16 times.
|--------------------------|

|---------------------------------|
|-7-7-7-7-7-7-7-7-7-7-7-7-7-7-7-7-|
|---------------------------------|Repeated twice.
|---------------------------------|
After the first guitar solo (5:38), go back to Riff C and play
Riff D.


(7:10)
|-5-4-2-5-4-2-----------|
|-------------5-4-2-----|
|-------------------3-0-|Play 4 times.
|-----------------------|


Last Verse (7:19)
|----------------------------|-------------------------|
|----------------------------|-------------------------|
|-0-3--5--5-----------0----0-|-0-3--5--5-5-3-5-3-0-0---|
|-----------0-2-3-3-4----3---|-----------------------3-|

|-----------------------------|---------------------------|
|-----------------------------|---------------------------|
|-0-3--5--5-----------0-0---0-|-0-3--5----5-3-----0-0-0-0-|
|-----------0-2-3-3-4-----3---|---------------3-4---------|

|--------------------------|-----------------------------|
|--------------------------|-----------------------------|
|-0-3--5--5-3-2-1-0--0---0-|-0-3--5--5-----------0-0---0-|
|----------------------3---|-----------0-2-3-3-4-----3---|

|----------------------|----------------------------------|
|----------------------|----------------------------------|
|-0-3--5---5--3--0-0---|-0-3--3/5--5-5-5--5-3-5-3-5-3-0-0-|
|--------------------3-|----------------------------------|


(7:56) Play Riff B
(8:37) Play Verse 2
(9:12) Play Riff B until the end.



Get this song at amazon.com      Ebay     Ringtones Ringtones  


Learn to play: Songwriting, Piano, Harmonica, Guitar
Also available at Muzikum: Led Zeppelin - In My Time Of Dying lyrics

Related Led Zeppelin Bass Tabs

Houses Of The Holy bass
California Girl bass
Stair Way To Heaven (correct) bass
Moby Dick bass
Heartbreaker Complete bass
The Ocean bass
Rock And Roll(studio Version) bass
In The Light bass
No Quater bass
Poor Tom bass
Friends bass
The Girl I Love She Got Long Black Wavy Hair bass
Bron-y-aur Stomp (correct) bass
Nobodys Fault But Mine bass
Bring It On Home bass
Hart Breaker bass
Royal Orleans (complete) bass
Dyer Maker bass
All My Love bass
Communitcation Breakdown bass


Guitar Tabs









All tabs are property and copyright of their owners. All tabs provided for educational purposes only. Privacy Policy, DMCA

Online converter - videoconverter.com