Led Zeppelin

Immigration Song Bass Tabs



More from Led Zeppelin

Led Zeppelin Tabs
Led Zeppelin Chords
Led Zeppelin Bass
Led Zeppelin Lyrics




---------------------------------r----||-----------r-----------|--------
4:-------------------------------e---*||-----------e-----------|--------
4:-------------------------------s---*||-----------s-----------|--------
---------------------------------t----||-----------t-----------|--------


H q
----r-----------|-------------------------------------------------------
----e-----------|-------------------------------------------------------
----s-----------|-------------------------------------------------------
----t-------5---|-------------------------------------------------------


Verse Figure* e s s s e e s s s e
------------------------------------------------------------------------
------------------------------------2-----------------------2-----------
------------------------------------------------------------------------
------------------------0---0---0-------0---x---0---0---0-------0-------


e s s s e e s s q
----|-------------------------------------------------------------------
----|---------------2---------------------------------------------------
----|---------------------------------------0---------------------------
x---|---0---0---0-------0---x---0---0---0-------------------------------


e s s s e e s s s e 5x
||-----------------------------------------------------||---------------
||*---------------4-----------------------4-----------*||---------------
||*---------------------------------------------------*||---------------
||----2---2---2-------2---x---2---2---2-------2---x----||---------------


e s s s e e s s q
----------------------------------------|-------------------------------
------------4---------------------------|-------------------------------
----------------------------------------|-------------------------------
2---2---2-------2---x---2---2---2---5---|-------------------------------


e s s s e e s s s e
------------------------------------------------|-----------------------
------------2-----------------------2-----------|-----------------------
------------------------------------------------|-----------------------
0---0---0-------0---x---0---0---0-------0---x---|-----------------------


e s s s e e s s q
------------------------------------------------------------------------
------------2-----------------------------------------------------------
------------------------------------0-----------------------------------
0---0---0-------0---x---0---0---0---------------------------------------


e s s s e e s s s e 2x
||-----------------------------------------------------||---------------
||*---------------4-----------------------4-----------*||---------------
||*---------------------------------------------------*||---------------
||----2---2---2-------2---x---2---2---2-------2---x----||---------------



------------------------------------------------------------------------
------------------------------------------------------------------------
------------------------------------------------------------------------
------------------------------------------------------------------------


CHORUS
------------------------------------------------||----------------------
------------------------------------------------||----------------------
------------------------------------------------||----------------------
------------------------------------------------||----------------------


s s s s s s s s s s s s s s s s
------------------------------------------------------------|-----------

------------------4---6---7---------------------4---6---7---|-----------
------4---5---7---------------------4---5---7---------------|-----------
5h7---------------------------5h7---------------------------|-----------


s s s s s s s s s s s s s s s s
------------------------------------------------------------|-----------
------------------6---8---9---------------------6---8---9---|-----------
------6---7---9---------------------6---7---9---------------|-----------
7h9---------------------------7h9---------------------------|-----------


s s s s s s s s s s s s s s s s
---------------------------------------------------------------|-----------
------------------7---9---10----------------------7---9---10---|-----------
------7---8---10----------------------7---8---10---------------|-----------
8h10----------------------------8h10---------------------------|-----------


s s s s s s s s q e e
-----------------------------------r-------||----------------------------
------------------7---8---9---10---e-------||----------------------------
------7---8---10-------------------s-------||----------------------------
8h10-------------------------------t---0---||----------------------------



------------------------------------------------------------------------
------------------------------------------------------------------------
------------------------------------------------------------------------
------------------------------------------------------------------------


Segue Into Verse
------------------------------------------------------------------------
------------------------------------------------------------------------
------------------------------------------------------------------------
------------------------------------------------------------------------


e s s s e e s s s e 5x
||-----------------------------------------------------||---------------
||*---------------4-----------------------4-----------*||---------------
||*---------------------------------------------------*||---------------
||----2---2---2-------2---x---2---2---2-------2---x----||---------------


e s s s e e s s q
----------------------------------------||------------------------------
------------4---------------------------||------------------------------
------------------------------------0---||------------------------------
2---2---2-------2---x---2---2---2-------||------------------------------


Go to Verse*
------------------------------------------------------------------------
------------------------------------------------------------------------
------------------------------------------------------------------------
------------------------------------------------------------------------


Ending
------------------------------------------------------------------------
------------------------------------------------------------------------
------------------------------------------------------------------------
------------------------------------------------------------------------


e s s s e e s s s e 4x
||-----------------------------------------------------||---------------
||*---------------4-----------------------4-----------*||---------------
||*---------------------------------------------------*||---------------
||----2---2---2-------2---x---2---2---2-------2---x----||---------------


e s s s e e s s s e
||----------------------------------------------------|-----------------
||*---------------4-----------------------4-----------|-----------------
||*---------------------------------------------------|-----------------
||----2---2---2-------2---x---2---2---2-------2---x---|-----------------


e s s s e e s s s s s 4x
-------------------------------------------------||---------------------
------------4-----------------------------------*||---------------------
------------------------------------4p3h4-------*||---------------------
2---2---2-------2---x---2---2---2-----------x----||---------------------


e s s s e e s s s s s 7x
||-----------------------------------------------------||---------------
||*---------------4-----------------------------------*||---------------
||*---------------------------------------4p3h4-------*||---------------
||----2---2---2-------2---x---2---2---2-----------x----||---------------


e s s s e q q
----------------------------r---||--------------------------------------
------------4---------------e---||--------------------------------------
----------------------------s---||--------------------------------------
2---2---2-------2---x---2---t---||--------------------------------------



Get this song at amazon.com      Ebay     Ringtones Ringtones  


Learn to play: Songwriting, Piano, Harmonica, Guitar
More Led Zeppelin lyrics available at Muzikum

Related Led Zeppelin Bass Tabs

Friends bass
Poor Tom bass
Communication Breakdown bass
Rock & Roll bass
Royal Orleans bass
Crunge bass
Trampeled Underfoot bass
Heartbreaker bass
Ten Years Gone bass
Gallows Pole bass
Misty Mountain bass
Nobodys Fault But Mine bass
The Rain Song bass
Ramble On bass
We're Gonna Groove bass
Dryer Maker bass
Bron-y-aur Stomp (correct) bass
California Girls bass
Immigration Song bass
Dazed & Confused bass


Guitar Tabs









All tabs are property and copyright of their owners. All tabs provided for educational purposes only. Privacy Policy, DMCA