Led Zeppelin

Immigrant Song (how The West Was Won) Tabs



More from Led Zeppelin

Led Zeppelin Tabs
Led Zeppelin Chords
Led Zeppelin Bass
Led Zeppelin Lyrics



Standard Tuning

E|----------------|----------------|----------------|----------------|
B|----------------|----------------|----------------|----------------|
G|----------------|----------------|----------------|----------------|
D|----4-------4---|----4-------4---|----4-------4---|----4-------4---|
A|----------------|----------------|----------------|----------------|
E|2-22-2-02-22-2-0|2-22-2-02-22-2-0|2-22-2-02-22-2-0|2-22-2-02-22-2-0|

E|----------------|----------------|----------------|----------------||
B|----------------|----------------|----------------|----------------||
G|----------------|----------------|----------------|------------2---||
D|----4-------4---|----4-------4---|----4-------4---|----4-------2-00||
A|----------------|----------------|----------------|----------000-00||
E|2-22-2-02-22-2-0|2-22-2-02-22-2-0|2-22-2-02-22-2-0|2-22-2-02-----00||

E|----------------|----------------|----------------|----------------|
B|----------------|--------0---2---|----------------|----------------|
G|----------------|--------1---2---|----------------|----------------|
D|2---------------|(2)-----2---2---|----4-------4---|----4-------4---|
A|2---------------|(2)-----2---0---|----------------|----------------|
E|0---------------|(0)-----0-------|2-22-2-02-20-220|2-22-2-02-22-220|
We come from the land.....

E|----------------|----------------|----------------|----------------|
B|----------------|--------2---2---|----------------|----------------|
G|----------------|--------4(6)4--3|----------------|------------2---|
D|----4-------4---|----4-----------|----4-------4---|----4-------2---|
A|----------------|----------------|----------------|----------000-00|
E|2-22-2-02-22-220|2-22-22---------|2-2--2-02-2--2-0|2-22-2-02-----00|

E|----------------|----------------|----------------|----------------||
B|----------------|--------0---2---|----------------|----------------||
G|----------------|--------1---2---|----------------|----------------||
D|2---------------|(2)-----2---2---|----4-------4---|----4-------4---||
A|2---------------|(2)-----2---0---|----x--0----x---|----x-------x--0||
E|0---------------|(0)-----0-------|2-22-2--2-22-2-0|2-22-2-02-22-2--||

E|----------------|----------------|----------------|----------------|
B|----------------|----------------|----------------|-0--------------|
G|2-222222-222222-|4-444-44-4444445|5-555-55-5555550|0x-5875-5-------|
D|2-222222-222242-|4-444-44-4444445|5-555-55-555555x|-57----7--------|
A|0-000000-344000-|2-222-22-2222223|3-333-33-3333337|----------------|
E|----------------|----------------|----------------|---------------x|
On we sweep with.....

E|----------------|----------------|----------------|----------------|
B|----------------|----------------|----------------|----------------|
G|----------------|----------------|----------------|----------------|
D|----4-------4---|----4-------4---|----4-------4---|----4-------4---|
A|----------------|----------------|----------------|----------------|
E|2-22-2-02-22-2-0|2-22-2-02-22-2-0|2-22-2-02-22-2-0|2-22-2-02-22-2-0|

E|----------------|----------------||
B|----------------|----------------||
G|----------------|----------222---||
D|----4-------4---|----4-----222---||
A|----------------|----------000-00||
E|2-22-2-02-22-2-0|2-22-2-02-----00||

E|----------------|----------------|----------------|----------------|
B|----------------|--------0---2---|----------------|----------------|
G|----------------|--------1---2---|----------------|----------------|
D|2---------------|(2)-----2---2---|----4-------4---|----4-------4---|
A|2---------------|(2)-----2---0---|----------------|----------------|
E|0---------------|(0)-----0-------|2-22-2-02-20-220|2-22-2-02-22-220|
We come from the land.....

E|----------------|----------------|----------------|----------------|
B|----------------|--------2---2---|----------------|----------------|
G|----------------|--------4(6)4--3|----------------|------------2---|
D|----4-------4---|----4-----------|----4-------4---|----4-------2---|
A|----------------|----------------|----------------|----------000-00|
E|2-22-2-02-22-220|2-22-22---------|2-2--2-02-2--2-0|2-22-2-02-----00|

E|----------------|----------------|----------------|----------------||
B|----------------|--------0---2---|----------------|----------------||
G|----------------|--------1---2---|----------------|----------------||
D|2---------------|(2)-----2---2---|----4-------4---|----4-------4---||
A|2---------------|(2)-----2---0---|----x--0----x---|----x-------x--0||
E|0---------------|(0)-----0-------|2-22-2--2-22-2-0|2-22-2-02-22-2--||

E|----------------|----------------|----------------|----------------|
B|----------------|----------------|----------------|-0--------------|
G|2-222222-222222-|4-444-44-4444445|5-555-55-5555550|0x-5875-5-------|
D|2-222222-222242-|4-444-44-4444445|5-555-55-555555x|-57----7--------|
A|0-000000-344000-|2-222-22-2222223|3-333-33-3333337|----------------|
E|----------------|----------------|----------------|---------------x|
On we sweep with.....

E|----------------|----------------|----------------|----------------|
B|----------------|----------------|----------------|----------------|
G|----------------|----------------|----------------|----------------|
D|----4-------4---|----4-------4---|----4-------4---|----4-------4---|
A|----------------|----------------|----------------|----------------|
E|2-22-2-02-22-2-0|2-22-2-02-22-2-0|2-22-2-02-22-2-0|2-22-2-02-22-2-0|

E|----------------|----------------||
B|----------------|----------------||
G|----------------|----------222---||
D|----4-------4---|----4-----222---||
A|----------------|----------000-00||
E|2-22-2-02-22-2-0|2-22-2-02-----00||

E|----------------|----------------|----------------|----------------|
B|----------------|----------------|------------3---|------------3---|
G|----------------|----------------|------------3---|------------3---|
D|----4-------4---|----4-------4---|xxxxxxxxxxx-0---|xxxxxxxxxxx-0---|
A|----------------|----------------|44xx4xx4xxx-x---|44xx4xx4xxx-x---|
E|2-22-2-02-22-2-0|2-22-2-02-22-2-0|22xx2xx2xxx-3---|22xx2xx2xxx-3---|

E|----------------|----------------|----------------|----------------|
B|------------3---|------------3---|------------3---|------------3---|
G|------------3---|------------3---|------------3---|------------3---|
D|xxxxxxxxxxx-0---|--------xx--0---|--------xx--0---|--------xx--0---|
A|44xx4xx4xxx-x---|4---4--4xx0-x---|4---4--4xx0-x---|4---4--4xx0-x---|
E|22xx2xx2xxx-3---|2-222222xx0-3---|2-222222xx0-3---|2-222222xx0-3---|

E|----------------|----------------||
B|------------3---|----------------||
G|------------3---|----------------||
D|--------xx--0---|44xx4444-44-4---||
A|4---4--4xx0-x---|44xx4444-44-4---||
E|2-222222xx0-3---|22xx2220-02-0---||

E|----------------|----------------|----------------|----------------|
B|----------------|----------------|----------------|----------------|
G|----------------|----------------|030-0-----------|-------24242-2-2|
D|4---------------|(4)-2--------2-4|------44--------|-----4------4-4-|
A|4---------------|(4)-------------|----------------|----------------|
E|2---------------|(2)-------------|----------------|----------------|

3/ 3/ 3/
E|---5---------5--|----------------|-----------------|------------------|
B|----------------|--------------5-|-----5-----------|------------------|
G|6---6-----------|642-242-2-26---6|6-----6-642-42-2-|------------------|
D|----------------|---4---4-4------|-----------4--4-4|2-020-0-----------|
A|----------------|----------------|-----------------|-4---4-420-020--0-|
E|----------------|----------------|-----------------|----------4----0-0|

--3-/ 3/
E|------------------|-----------------|----------------|----------------|
B|------------------|-----------------|----------------|----------------|
G|------------------|-----------------|----------------|------1111222444|
D|------------------|-----------------|----------------|--4444----------|
A|------------------|-----------------|----------------|----------------|
E|--0-3-2-2-------11|---2-5-7--5-25252|002-2-------12--|----------------|

3/ --3-/--3-/--3-/--3-/
E|----------------|-----------------|----------------|------------------------|
B|4---------------|-----------------|----------------|------------------------|
G|4-21421421421421|-1246-----24-2421|--1-2-4-2-421---|1-2-4-4-6-6-6-6-8---8-9-|
D|----------------|4----------------|4---------------|------------------------|
A|----------------|0----------------|----------------|------------------------|
E|----------------|-----------------|----------------|------------------------|

--3-/--6-/--6-/--6-/ --3-/ --3-/ --3-/--3--/--3-/
E|------------------------|------------------|------------------|-----------------------|
B|------------------------|------------------|------------------|7---7-9-109108---7-9-10|
G|9-9----76976976976976976|976-6711----7-9-7-|976---------6-7-9-|--9------------9-------|
D|------------------------|---9--------------|------------------|-----------------------|
A|------------------------|------------------|------------------|-----------------------|
E|------------------------|------------------|------------------|-----------------------|

E|----------------|--14--1414141414--1414--1414--14|14--1414--1414141414141414141414|
B|12------14------|--14--1414141414--1414--1414--14|14--1414--1414141414141414141414|
G|----------------|--18--1818181818----18----18----|18----18----18--1818181818181818|
D|----------------|--------------------------------|--------------------------------|
A|----------------|--------------------------------|--------------------------------|
E|----------------|--------------------------------|--------------------------------|

E|------1414--1414--1414--141414--|--14--1414--------1414--141414--|
B|------1414--1414--1414--141414--|--14--1414--------1414--141414--|
G|--18--1818--1818--1818--181818--|--18--1818181818--1818--181818--|
D|--------------------------------|--------------------------------|
A|--------------------------------|--------------------------------|
E|--------------------------------|--------------------------------|

E|1417----19----------171614--14--|--------------------------------|
B|14------------------------17--17|14--------------14--------------|
G|--------------------------------|--171614--141617--171614--1614--|
D|--------------------------------|--------16--------------16----16|
A|--------------------------------|--------------------------------|
E|--------------------------------|--------------------------------|

E|--------------------------------|--------------------------------|
B|----------14--------------------|--------------------------------|
G|14--14--17--1716141614--1614--16|14--14----------------1614--14--|
D|--16------------------16----16--|--16--16141614--141516----16--16|
A|--------------------------------|--------------16----------------|
E|--------------------------------|--------------------------------|

E|--------------------------------|19--19--161916--16--------------|
B|------161617----1616----1617--16|--------------17--1716--16------|
G|141818--------18------18----18--|----------------------18--181614|
D|--------------------------------|--------------------------------|
A|--------------------------------|--------------------------------|
E|--------------------------------|--------------------------------|

--3-/ -----3----/
E|----------------------------------|------------------------------------|
B|--------14------------------------|------------------------------------|
G|--141617--171614--1614--1614--14--|14--14--------14--14--14--14------14|
D|16--------------16----16----16--16|------------16--------------1616----|
A|----------------------------------|------------------------------------|
E|----------------------------------|------------------------------------|

E|--------------------------------|--------------------------------|
B|--------------------------------|--------------------------------|
G|--1414--14------14--1414------14|--1414--141414--1414------141614|
D|------------16--------------165-|--------------------16--16------|
A|--------------------------------|--------------------------------|
E|--------------------------------|--------------------------------|

----3---/ --3-/
E|--------------------------------|--------------------------------------|
B|--------------------------------|--------------------------------------|
G|----------------13--------------|14------15------11--11--9---119-119-7-|
D|--14----14--12------------------|--------------------------------------|
A|16------------------------------|--------------------------------------|
E|--------------------------------|--------------------------------------|

3/ 3/ 3/--3-/--3-/
E|------------------|----------------|----------------4-7-4-|4---------------|
B|-----0------------|----------------|------454-4-5---0----5|-54-4-----------|
G|96756-4422------04|1-1-----------1-|4--6-----6------------|---6-64242-4----|
D|-----------442----|-2-212------2---|----------------------|----------4-4424|
A|--------------40--|----------------|----------------------|----------------|
E|------------------|----------------|----------------------|----------------|

E|----------------|----------------|----------------|----------------|
B|----------------|----------------|----------------|----------------|
G|----------------|------2---------|------5---------|------7---------|
D|12-4------------|12-4--2---------|12-35-5---------|12-35-7---------|
A|----------------|------0---------|------3---------|------5---------|
E|----------------|----------------|----------------|----------------|

E|----------------||----------------|----------------|----------------|
B|----------------||----------------|------------3---|----------------|
G|------1111------||----------------|------------3---|----------------|
D|12-4------------||----4-------4---|----4-------0---|----4-------4---|
A|------9-9-----9-||----------------|------------x---|----------------|
E|------0-0-------||2-22-2-02-22-2-0|2-22-2-02---3---|2-22-2-02-22-2-0|

E|----------------|----------------|----------------|----------------|----------------||
B|------------3---|------------3---|------------3---|------------3---|----------------||
G|------------3---|------------3---|------------3---|------------3---|----------------||
D|----4-------0---|----4-------0---|----4-------0---|----4-------0---|----4-----------||
A|------------x---|------------x---|------------x---|------------x---|----------------||
E|2-22-2-02---3---|2-22-2-02---3---|2-22-2-02---3---|2-22-2-02---3---|2-22-2-22-------||


Get this song at amazon.com      Ebay     Ringtones Ringtones  


Learn to play: Songwriting, Piano, Harmonica, Guitar
More Led Zeppelin lyrics available at Muzikum

Related Led Zeppelin Tabs

Over The Hills & Far Away tabs
Thank You tabs
Four Sticks For 3 Guitars tabs
Were Gonna Groove tabs
The Girl I Love Intro tabs
Tangerine Solo tabs
Stairway To Heaven (complete) tabs
Wah Wah Song tabs
Immigrant Song (how The West Was Won) tabs
Traveling Riverside Blues tabs
Night Flight tabs
Bron Yr Aur (Version 2) tabs
Black Country Woman tabs
Physical Graffiti Disc 1 tabs
Hots On For Nowhere tabs
Lz Gallows Pole tabs
Remasters Disc 1 tabs
The Girl I Love Bbc Sessions tabs
Imigrant Song tabs
What Is And What Should tabs


Guitar Tabs









All tabs are property and copyright of their owners. All tabs provided for educational purposes only. Privacy Policy, DMCA