Led Zeppelin

Im Gonna Leave You Tabs



More from Led Zeppelin

Led Zeppelin Tabs
Led Zeppelin Chords
Led Zeppelin Bass
Led Zeppelin Lyrics



Standard tuning, eadgbe

note:this tab is based of the a minor chord(x02210)
b=bend
~=vibrato
/=slide
h=hammer
p=pulloff

---------0---------|-----------------|-----------------|-----------------|------
-----------------1-|-------3-------1-|-------3-------1-|-------1-------0-|------
---2---2-------2---|-----0-------0---|-----2-------2---|-----2-------1---|------
-----2-------2-----|---2-------2-----|---0-------0-----|---3-------2-----|------
-0---------0-------|-----------------|-----------------|-----------------|------
-------------------|-3-------3-------|-2-------2-------|-1-------0-------|------

-------3-------0-|-------3-------0-|-----------------|-----------------|
-----------------|-----------------|-------3-------1-|-------1-------0-|
-----2-------2---|-----0-------0---|-----2-------2---|-----2-------1---|
---2-------2-----|---2-------2-----|---0-------0-----|---3-------2-----|
-0-------0-------|-----------------|-----------------|-----------------|
-----------------|-3-------3-------|-2-------2-------|-1-------0-------|


-------3-------0-|-----------------|-----------------|-----------------|
-----------------|-------3-------1-|-------3-------1-|-------1-------0-|
-----2-------2---|-----0-------0---|-----2-------2---|-----2-------1---|
---2-------2-----|---2-------2-----|---0-------0-----|---3-------2-----|
-0-------0-------|-----------------|-----------------|-----------------|
-----------------|-3-------3-------|-2-------2-------|-1-------0-------|
Babe... baby baby

-------3-------0-|-----------------|-----------------|-----------------|
-----------------|-------3-------1-|-------3-------1-|-------1-------0-|
-----2-------2---|-----0-------0---|-----2-------2---|-----2-------1---|
---2-------2-----|---2-------2-----|---0-------0-----|---3-------2-----|
-0-------0-------|-----------------|-----------------|-----------------|
-----------------|-3-------3-------|-2-------2-------|-1-------0-------|
im gonna leave you...

-------3-------0-|-----------------|-----------------|-----------------|
-----------------|-------3-------1-|-------3-------1-|-------1-------0-|
-----2-------2---|-----0-------0---|-----2-------2---|-----2-------1---|
---2-------2-----|---2-------2-----|---0-------0-----|---3-------2-----|
-0-------0-------|-----------------|-----------------|-----------------|
-----------------|-3-------3-------|-2-------2-------|-1-------0-------|
i said babe you know

-------3-------0-|-------3-------0-|-----------------|-----------------|
-----------------|-----------------|-------3-------1-|-------1-------0-|
-----2-------2---|-----0-------0---|-----2-------2---|-----2-------1---|
---2-------2-----|---2-------2-----|---0-------0-----|---3-------2-----|
-0-------0-------|-----------------|-----------------|-----------------|
-----------------|-3-------3-------|-2-------2-------|-1-------0-------|
im gonna leave you

-----------------|-----------------|-----------------|-----------------|
-------3-------1-|-------3-------1-|-------3-------1-|-------1-------0-|
-----2-------2---|-----0-------0---|-----2-------2---|-----2-------1---|
---2-------2-----|---2-------2-----|---0-------0-----|---3-------2-----|
-0-------0-------|-----------------|-----------------|-----------------|
-----------------|-3-------3-------|-2-------2-------|-1-------0-------|
leave you in the summertime

-------3-------0-|-----------------|-----------------|-----------------|
-----------------|-------3-------1-|-------3-------1-|-------1-------0-|
-----2-------2---|-----0-------0---|-----2-------2---|-----2-------1---|
---2-------2-----|---2-------2-----|---0-------0-----|---3-------2-----|
-0-------0-------|-----------------|-----------------|-----------------|
-----------------|-3-------3-------|-2-------2-------|-1-------0-------|


-------0-------0-|-------3-------0-|-----------------|-----------------|------
-----------------|-----------------|-------3-------1-|-------1-------0-|------
-----2-------2---|-----0-------0---|-----2-------2---|-----2-------1---|------
---2-------2-----|---2-------2-----|---0-------0-----|---3-------2-----|------
-0-------0-------|-----------------|-----------------|-----------------|------
-----------------|-3-------3-------|-2-------2-------|-1-------0-------|------
..comes a-

-0--0-0-0--3--1--1-1-1-1-1-1-0-0--0-0-0--3--1--1-1-1-1-1-1
-1--1-1-1--0--1--1-1-1-1-1-1-0-1--1-1-1--0--1--1-1-1-1-1-1
-2--2-2-2--0--2--2-2-2-2-2-2-0-2--2-2-2--0--2--2-2-2-2-2-2
-2--2-2-2--0--3--3-3-3-3-3-3-2-2--2-2-2--0--3--3-3-3-3-3-3
-0--0-0-0--2-----------------2-0--0-0-0--2----------------
-----------3-----------------0-----------3----------------

-long

-------3-------0-|-----------------|-----------------|-----------------|
-----------------|-------3-------1-|-------1-------1-|-------1-------0-|
-----2-------2---|-----0-------0---|-----2-------2---|-----2-------1---|
---2-------2-----|---2-------2-----|---0-------0-----|---3-------2-----|
-0-------0-------|-----------------|-----------------|-----------------|
-----------------|-3-------3-------|-2-------2-------|-1-------0-------|
babe babe babe babe babe baby baby

-------3-------0-|-----------------|-----------------|-----------------|
-----------------|-------3-------1-|-------3-------1-|-------1-------0-|
-----2-------2---|-----0-------0---|-----2-------2---|-----2-------1---|
---2-------2-----|---2-------2-----|---0-------0-----|---3-------2-----|
-0-------0-------|-----------------|-----------------|-----------------|
-----------------|-3-------3-------|-2-------2-------|-1-------0-------|
i dont wbat to leave you i aint your ive got to

-------3-------0-|-----------------|-----------------|-----------------|
-----------------|-------3-------1-|-------1-------1-|-------1-------0-|
-----2-------2---|-----0-------0---|-----2-------2---|-----2-------1---|
---2-------2-----|---2-------2-----|---0-------0-----|---3-------2-----|
-0-------0-------|-----------------|-----------------|-----------------|
-----------------|-3-------3-------|-2-------2-------|-1-------0-------|
ramble

~
a second guitar comes in here and plays little mini solos through
the rest of the song.
~


guitar 1
-------3-------0-|-----------------|-----------------|-----------------|
-----------------|-------3-------1-|-------1-------1-|-------1-------0-|
-----2-------2---|-----0-------0---|-----2-------2---|-----2-------1---|
---2-------2-----|---2-------2-----|---0-------0-----|---3-------2-----|
-0-------0-------|-----------------|-----------------|-----------------|
-----------------|-3-------3-------|-2-------2-------|-1-------0-------|
really got to ramble

guitar 2
--9-10-12---9-10-12--9h10p9-9-8
8---------8-------------------9
-------------------------------
-------------------------------
-------------------------------
-------------------------------

-----------------|-----------------|-----------------|-----------------|
-------3-------1-|-------3-------1-|-------3-------1-|-------1-------0-|
-----2-------2---|-----0-------0---|-----2-------2---|-----2-------1---|
---2-------2-----|---2-------2-----|---0-------0-----|---3-------2-----|
-0-------0-------|-----------------|-----------------|-----------------|
-----------------|-3-------3-------|-2-------2-------|-1-------0-------|
i can hear it calling me the way it use to do


-----------------|-----------------|-----------------|-----------------|
-------3-------1-|-------3-------1-|-------3-------1-|-------1-------0-|
-----2-------2---|-----0-------0---|-----2-------2---|-----2-------1---|
---2-------2-----|---2-------2-----|---0-------0-----|---3-------2-----|
-0-------0-------|-----------------|-----------------|-----------------|
-----------------|-3-------3-------|-2-------2-------|-1-------0-------|

i can hear it calling me back home


-0--0-0-0--3--1--1-1-1-1-1-1-0-0--0-0-0--3--1--1-1-1-1-1-1
-1--1-1-1--0--1--1-1-1-1-1-1-0-1--1-1-1--0--1--1-1-1-1-1-1
-2--2-2-2--0--2--2-2-2-2-2-2-0-2--2-2-2--0--2--2-2-2-2-2-2
-2--2-2-2--0--3--3-3-3-3-3-3-2-2--2-2-2--0--3--3-3-3-3-3-3
-0--0-0-0--2-----------------2-0--0-0-0--2----------------
-----------3-----------------0-----------3----------------


---------------3------3-----1---------------3------3-----1
-------0h1p0-3------3-----3---------0h1p0-3------3-----3--
-----2------------2-----2---------2------------2-----2----
---2----------------------------2-------------------------
-0----------------------------0---------------------------
----------------------------------------------------------


---------------3------3-----1---------------3------3-----1
-------0h1p0-3------3-----3---------0h1p0-3------3-----3--
-----2------------2-----2---------2------------2-----2----
---2----------------------------2-------------------------
-0----------------------------0---------------------------
----------------------------------------------------------


-5-5-5-5-5--5---3-3-3-3-3--3---2-2-2-2-2--2---1-1-1-0-0--0
-5-5-5-5-5--5---3-3-3-3-3--3---2-2-2-2-2--2---1-1-1-0-0--0
-5-5-5-5-5--5---3-3-3-3-3--3---2-2-2-2-2--2---1-1-1-0-0--0
-7-7-7-5-7--7---5-5-5-3-5--5---4-4-4-2-4--4---3-3-3-0-2--2
-7-7-7-5-7--7---5-5-5-3-5--5---4-4-4-2-4--4---3-3-3-0-2--2
-5-5-5-5-5--5---3-3-3-3-3--3---2-2-2-2-2--2---1-1-1-0-0--0
babe


-5-5-5-5-5--5---3-3-3-3-3--3---2-2-2-2-2--2---1-1-1-0-0--0
-5-5-5-5-5--5---3-3-3-3-3--3---2-2-2-2-2--2---1-1-1-0-0--0
-5-5-5-5-5--5---3-3-3-3-3--3---2-2-2-2-2--2---1-1-1-0-0--0
-7-7-7-5-7--7---5-5-5-3-5--5---4-4-4-2-4--4---3-3-3-0-2--2
-7-7-7-5-7--7---5-5-5-3-5--5---4-4-4-2-4--4---3-3-3-0-2--2
-5-5-5-5-5--5---3-3-3-3-3--3---2-2-2-2-2--2---1-1-1-0-0--0
im gonna leave you

-5-5-5-5-5--5---3-3-3-3-3--3---2-2-2-2-2--2---1-1-1-0-0--0
-5-5-5-5-5--5---3-3-3-3-3--3---2-2-2-2-2--2---1-1-1-0-0--0
-5-5-5-5-5--5---3-3-3-3-3--3---2-2-2-2-2--2---1-1-1-0-0--0
-7-7-7-5-7--7---5-5-5-3-5--5---4-4-4-2-4--4---3-3-3-0-2--2
-7-7-7-5-7--7---5-5-5-3-5--5---4-4-4-2-4--4---3-3-3-0-2--2
-5-5-5-5-5--5---3-3-3-3-3--3---2-2-2-2-2--2---1-1-1-0-0--0
babe you know


-5-5-5-5-5--5---3-3-3-3-3--3---2-2-2-2-2--2---1-1-1-0-0--0
-5-5-5-5-5--5---3-3-3-3-3--3---2-2-2-2-2--2---1-1-1-0-0--0
-5-5-5-5-5--5---3-3-3-3-3--3---2-2-2-2-2--2---1-1-1-0-0--0
-7-7-7-5-7--7---5-5-5-3-5--5---4-4-4-2-4--4---3-3-3-0-2--2
-7-7-7-5-7--7---5-5-5-3-5--5---4-4-4-2-4--4---3-3-3-0-2--2
-5-5-5-5-5--5---3-3-3-3-3--3---2-2-2-2-2--2---1-1-1-0-0--0
im gonna leave you


-1-1-1-1-1--1---0-0-0-0-0--0---1-1-1-1-1--1---0-0-0-0-0--0
-1-1-1-1-1--1---0-0-0-0-0--0---1-1-1-1-1--1---0-0-0-0-0--0
-1-1-1-1-1--1---0-0-0-0-0--0---1-1-1-1-1--1---0-0-0-0-0--0
-3-3-3-1-3--3---2-2-2-0-2--2---3-3-3-1-3--3---2-2-2-0-2--2
-3-3-3-1-3--3---2-2-2-0-2--2---3-3-3-1-3--3---2-2-2-0-2--2
-1-1-1-1-1--1---0-0-0-0-0--0---1-1-1-1-1--1---0-0-0-0-0--0
woman.... woman

-0--0-0-0--3--1--1-1-1-1-1-1-0-0--0-0-0--3--1--1-1-1-1-1-1
-1--1-1-1--0--1--1-1-1-1-1-1-0-1--1-1-1--0--1--1-1-1-1-1-1
-2--2-2-2--0--2--2-2-2-2-2-2-0-2--2-2-2--0--2--2-2-2-2-2-2
-2--2-2-2--0--3--3-3-3-3-3-3-2-2--2-2-2--0--3--3-3-3-3-3-3
-0--0-0-0--2-----------------2-0--0-0-0--2----------------
-----------3-----------------0-----------3----------------


-0--0-0-0--3--1--1-1-1-1-1-1-0-0--0-0-0--3--1--1-1-1-1-1-1
-1--1-1-1--0--1--1-1-1-1-1-1-0-1--1-1-1--0--1--1-1-1-1-1-1
-2--2-2-2--0--2--2-2-2-2-2-2-0-2--2-2-2--0--2--2-2-2-2-2-2
-2--2-2-2--0--3--3-3-3-3-3-3-2-2--2-2-2--0--3--3-3-3-3-3-3
-0--0-0-0--2-----------------2-0--0-0-0--2----------------
-----------3-----------------0-----------3----------------


here the mini solos start back up

guitar 1
-----------------|-----------------|-----------------|-----------------|
-------3-------1-|-------3-------1-|-------3-------1-|-------1-------0-|
-----2-------2---|-----0-------0---|-----2-------2---|-----2-------1---|
---2-------2-----|---2-------2-----|---0-------0-----|---3-------2-----|
-0-------0-------|-----------------|-----------------|-----------------|
-----------------|-3-------3-------|-2-------2-------|-1-------0-------|


guitar 2
--------------------------|-----------------------------------||
-5-6-8-6-5h6p5------------|------------5----------------------||
---------------5-7-5h7p5--|---5----5-7---7-5------------------||
-------------------------7|-7----7-----------8-7-5------------||
--------------------------|------------------------8-7-5------||
--------------------------|------------------------------8-6-5||


-------3-------0-|-------3-------0-|-------3-------0-|-------1-------0-|
-----1-------1---|-----1-------1---|-----1-------1---|-----2-------1---|
---2-------2-----|---2-------2-----|---0-------0-----|---3-------2-----|
-----------------|-----------------|-----------------|-----------------|
-0-------0-------|-----------------|-----------------|-----------------|
-----------------|-3-------3-------|-2-------2-------|-1-------0-------|


-----------------|-----------------|-----------------|-----------------|
-------3-------3-|-------3-------3-|-------3-------3-|-------1-------0-|
-----2-------2---|-----0-------0---|-----2-------2---|-----2-------1---|
---2-------2-----|---2-------2-----|---0-------0-----|---3-------2-----|
-0-------0-------|-----------------|-----------------|-----------------|
-----------------|-3-------3-------|-2-------2-------|-1-------0-------|
i know i know i know im never never


-----------------|-----------------|-----------------|-----------------|
-------3-------3-|-------3-------3-|-------3-------3-|-------1-------0-|
-----2-------2---|-----0-------0---|-----2-------2---|-----2-------1---|
---2-------2-----|---2-------2-----|---0-------0-----|---3-------2-----|
-0-------0-------|-----------------|-----------------|-----------------|
-----------------|-3-------3-------|-2-------2-------|-1-------0-------|
gonna leave you but i gotta go away from this


-----------------|-----------------|-----------------|-----------------|
-------3-------3-|-------3-------3-|-------3-------3-|-------1-------0-|
-----2-------2---|-----0-------0---|-----2-------2---|-----2-------1---|
---2-------2-----|---2-------2-----|---0-------0-----|---3-------2-----|
-0-------0-------|-----------------|-----------------|-----------------|
-----------------|-3-------3-------|-2-------2-------|-1-------0-------|
place oh baby baby baby baby


-5-5-5-5-5--5---3-3-3-3-3--3---2-2-2-2-2--2---1-1-1-0-0--0
-5-5-5-5-5--5---3-3-3-3-3--3---2-2-2-2-2--2---1-1-1-0-0--0
-5-5-5-5-5--5---3-3-3-3-3--3---2-2-2-2-2--2---1-1-1-0-0--0
-7-7-7-5-7--7---5-5-5-3-5--5---4-4-4-2-4--4---3-3-3-0-2--2
-7-7-7-5-7--7---5-5-5-3-5--5---4-4-4-2-4--4---3-3-3-0-2--2
-5-5-5-5-5--5---3-3-3-3-3--3---2-2-2-2-2--2---1-1-1-0-0--0


-5-5-5-5-5--5---3-3-3-3-3--3---2-2-2-2-2--2---1-1-1-0-0--0
-5-5-5-5-5--5---3-3-3-3-3--3---2-2-2-2-2--2---1-1-1-0-0--0
-5-5-5-5-5--5---3-3-3-3-3--3---2-2-2-2-2--2---1-1-1-0-0--0
-7-7-7-5-7--7---5-5-5-3-5--5---4-4-4-2-4--4---3-3-3-0-2--2
-7-7-7-5-7--7---5-5-5-3-5--5---4-4-4-2-4--4---3-3-3-0-2--2
-5-5-5-5-5--5---3-3-3-3-3--3---2-2-2-2-2--2---1-1-1-0-0--0




guitar 1
-----------------|-----------------|-----------------|-----------------|
-------3-------1-|-------3-------1-|-------3-------1-|-------1-------0-|
-----2-------2---|-----0-------0---|-----2-------2---|-----2-------1---|
---2-------2-----|---2-------2-----|---0-------0-----|---3-------2-----|
-0-------0-------|-----------------|-----------------|-----------------|
-----------------|-3-------3-------|-2-------2-------|-1-------0-------|
woman iknow


-----------------|-----------------|-----------------|-----------------|
-------3-------3-|-------3-------3-|-------3-------3-|-------1-------0-|
-----2-------2---|-----0-------0---|-----2-------2---|-----2-------1---|
---2-------2-----|---2-------2-----|---0-------0-----|---3-------2-----|
-0-------0-------|-----------------|-----------------|-----------------|
-----------------|-3-------3-------|-2-------2-------|-1-------0-------|
it is good to have you back again



-----------------|-----------------|-----------------|-----------------|
-------3-------1-|-------3-------1-|-------3-------1-|-------1-------0-|
-----2-------2---|-----0-------0---|-----2-------2---|-----2-------1---|
---2-------2-----|---2-------2-----|---0-------0-----|---3-------2-----|
-0-------0-------|-----------------|-----------------|-----------------|
-----------------|-3-------3-------|-2-------2-------|-1-------0-------|
and i know that someday...


-----------------|-----------------|-----------------|-----------------|
-------3-------3-|-------3-------3-|-------3-------3-|-------1-------0-|
-----2-------2---|-----0-------0---|-----2-------2---|-----2-------1---|
---2-------2-----|---2-------2-----|---0-------0-----|---3-------2-----|
-0-------0-------|-----------------|-----------------|-----------------|
-----------------|-3-------3-------|-2-------2-------|-1-------0-------|
we gonna go walking through the park every day


guitar 2
-15~~~~~~-|----------
----------|----------
------13~~|--14b15b14
----------|----------
----------|----------
----------|----------



-5-5-5-5-5--5---3-3-3-3-3--3---2-2-2-2-2--2---1-1-1-0-0--0
-5-5-5-5-5--5---3-3-3-3-3--3---2-2-2-2-2--2---1-1-1-0-0--0
-5-5-5-5-5--5---3-3-3-3-3--3---2-2-2-2-2--2---1-1-1-0-0--0
-7-7-7-5-7--7---5-5-5-3-5--5---4-4-4-2-4--4---3-3-3-0-2--2
-7-7-7-5-7--7---5-5-5-3-5--5---4-4-4-2-4--4---3-3-3-0-2--2
-5-5-5-5-5--5---3-3-3-3-3--3---2-2-2-2-2--2---1-1-1-0-0--0


-5-5-5-5-5--5---3-3-3-3-3--3---2-2-2-2-2--2---1-1-1-0-0--0
-5-5-5-5-5--5---3-3-3-3-3--3---2-2-2-2-2--2---1-1-1-0-0--0
-5-5-5-5-5--5---3-3-3-3-3--3---2-2-2-2-2--2---1-1-1-0-0--0
-7-7-7-5-7--7---5-5-5-3-5--5---4-4-4-2-4--4---3-3-3-0-2--2
-7-7-7-5-7--7---5-5-5-3-5--5---4-4-4-2-4--4---3-3-3-0-2--2
-5-5-5-5-5--5---3-3-3-3-3--3---2-2-2-2-2--2---1-1-1-0-0--0



guitar 1

-----------------|-----------------|-----------------|-----------------|
-------3-------1-|-------3-------1-|-------3-------1-|-------1-------0-|
-----2-------2---|-----0-------0---|-----2-------2---|-----2-------1---|
---2-------2-----|---2-------2-----|---0-------0-----|---3-------2-----|
-0-------0-------|-----------------|-----------------|-----------------|
-----------------|-3-------3-------|-2-------2-------|-1-------0-------|

-----------------|-----------------|-----------------|-----------------|
-------3-------1-|-------3-------1-|-------3-------1-|-------1-------0-|
-----2-------2---|-----0-------0---|-----2-------2---|-----2-------1---|
---2-------2-----|---2-------2-----|---0-------0-----|---3-------2-----|
-0-------0-------|-----------------|-----------------|-----------------|
-----------------|-3-------3-------|-2-------2-------|-1-------0-------|

-----------------|-----------------|-----------------|-----------------|
-------3-------1-|-------3-------1-|-------3-------1-|-------1-------0-|
-----2-------2---|-----0-------0---|-----2-------2---|-----2-------1---|
---2-------2-----|---2-------2-----|---0-------0-----|---3-------2-----|
-0-------0-------|-----------------|-----------------|-----------------|
-----------------|-3-------3-------|-2-------2-------|-1-------0-------|


-----------------|-----------------|-----------------|-----------------|
-------3-------1-|-------3-------1-|-------3-------1-|-------1-------0-|
-----2-------2---|-----0-------0---|-----2-------2---|-----2-------1---|
---2-------2-----|---2-------2-----|---0-------0-----|---3-------2-----|
-0-------0-------|-----------------|-----------------|-----------------|
-----------------|-3-------3-------|-2-------2-------|-1-------0-------|
but now...
this probably is wrong, but i think i got pretty close this time, u tell me how i did...
i have to go so ill finish tommorow
guitar 2
-----10-7-8-7-----------------|--------------------|
-11b----------10-8-6-8-6------|--------------------|
-------------------------9-7-9|---4/7-4-5-4-5---5--|
------------------------------|---------------7----|
------------------------------|------------------7-|
------------------------------|--------------------|

----------------------------------------
----------------------------------------
--6/9-6/9-7-6---6---9-8-7---------------
--------------9-----------10-7-9-10-9-10
----------------------------------------
----------------------------------------

---------|----------------------|7/10-7/10-7/10-7/10-8-7-8-7-------------
---------|----------------------|----------------------------8-10-8------
-10-9-7--|----------------------|-----------------------------------9-7--
--------7|-----------5-----5----|---------------------------------------7
---------|-----5-7/8---7/8---7--|----------------------------------------
---------|5-8------------------5|----------------------------------------





-5-5-5-5-5--5---3-3-3-3-3--3---2-2-2-2-2--2---1-1-1-0-0--0
-5-5-5-5-5--5---3-3-3-3-3--3---2-2-2-2-2--2---1-1-1-0-0--0
-5-5-5-5-5--5---3-3-3-3-3--3---2-2-2-2-2--2---1-1-1-0-0--0
-7-7-7-5-7--7---5-5-5-3-5--5---4-4-4-2-4--4---3-3-3-0-2--2
-7-7-7-5-7--7---5-5-5-3-5--5---4-4-4-2-4--4---3-3-3-0-2--2
-5-5-5-5-5--5---3-3-3-3-3--3---2-2-2-2-2--2---1-1-1-0-0--0


-5-5-5-5-5--5---3-3-3-3-3--3---2-2-2-2-2--2---1-1-1-0-0--0
-5-5-5-5-5--5---3-3-3-3-3--3---2-2-2-2-2--2---1-1-1-0-0--0
-5-5-5-5-5--5---3-3-3-3-3--3---2-2-2-2-2--2---1-1-1-0-0--0
-7-7-7-5-7--7---5-5-5-3-5--5---4-4-4-2-4--4---3-3-3-0-2--2
-7-7-7-5-7--7---5-5-5-3-5--5---4-4-4-2-4--4---3-3-3-0-2--2
-5-5-5-5-5--5---3-3-3-3-3--3---2-2-2-2-2--2---1-1-1-0-0--0

-5-5-5-5-5--5---3-3-3-3-3--3---2-2-2-2-2--2---1-1-1-0-0--0
-5-5-5-5-5--5---3-3-3-3-3--3---2-2-2-2-2--2---1-1-1-0-0--0
-5-5-5-5-5--5---3-3-3-3-3--3---2-2-2-2-2--2---1-1-1-0-0--0
-7-7-7-5-7--7---5-5-5-3-5--5---4-4-4-2-4--4---3-3-3-0-2--2
-7-7-7-5-7--7---5-5-5-3-5--5---4-4-4-2-4--4---3-3-3-0-2--2
-5-5-5-5-5--5---3-3-3-3-3--3---2-2-2-2-2--2---1-1-1-0-0--0


-5-5-5-5-5--5---3-3-3-3-3--3---2-2-2-2-2--2---1-1-1-0-0--0
-5-5-5-5-5--5---3-3-3-3-3--3---2-2-2-2-2--2---1-1-1-0-0--0
-5-5-5-5-5--5---3-3-3-3-3--3---2-2-2-2-2--2---1-1-1-0-0--0
-7-7-7-5-7--7---5-5-5-3-5--5---4-4-4-2-4--4---3-3-3-0-2--2
-7-7-7-5-7--7---5-5-5-3-5--5---4-4-4-2-4--4---3-3-3-0-2--2
-5-5-5-5-5--5---3-3-3-3-3--3---2-2-2-2-2--2---1-1-1-0-0--0
baby baby


-----------0-------0---------------------0-------0------
----------1---------1-------------------1---------1-----
---------2-----------2-----------------2-----------2----
--------2-------------2---------------2-------------2---
-------0---------------0-------------0---------------0--

That's when it's calling me. I said that's when it's callin' me...

guitar 1
----------|-----------|-----------|-----------|-----------|-------------------
----------|------5--5-|------4--4-|------3--3-|------3--3-|-------------------
----------|---2--2--2-|---2--2--2-|---2--2--2-|---2--2--2-|-------------------
----------|-----------|-----------|-----------|-----------|-------------------
----------|-4---------|-3---------|-2---------|-1---------|-------------------
----------|-----------|-----------|-----------|-----------|-------------------
ba-ack ho -- me...

guitar 2
-------5-------4--------2--1
-5---5---4---4----3---3----2
---------------------------0
-7-7-----5-5------4-4------3
----------------------------
----------------------------

----5--
---5---
--5-
-7-----
7------
-------

this is my first tab so if it sucked, give me credit for at least finishing it
and i also had to make it just im gonna leave you so i could put it here


Get this song at amazon.com      Ebay     Ringtones Ringtones  


Learn to play: Songwriting, Piano, Harmonica, Guitar
More Led Zeppelin lyrics available at Muzikum

Related Led Zeppelin Tabs

Black Dog (Version 2) tabs
Royal Orleans Bass tabs
The Ocean (live At Madison Square Garden) tabs
Were Gonna Groove tabs
The Battle Of Evermore (chords) tabs
The Lemon Song tabs
Celebration Day Remasters tabs
Black Dog (live Version) tabs
Ramble On tabs
Babe Im Gonna Leave You tabs
The Rover (2) tabs
Nobodys Fault But Mine tabs
Whole Lotta Love tabs
Custard Pie tabs
Since I've Been Loving You tabs
Bron Y Aur Stomp2 tabs
Bring It On Home Bass tabs
Black Mountain Side tabs
Your Time Is Gonna Come Bass tabs
Living Loving Maid (Shes Just A Woman) tabs


Guitar Tabs









All tabs are property and copyright of their owners. All tabs provided for educational purposes only. Privacy Policy, DMCA