Led Zeppelin

I'm Gonna Crawl Tabs



More from Led Zeppelin

Led Zeppelin Tabs
Led Zeppelin Chords
Led Zeppelin Bass
Led Zeppelin Lyrics



Standard Tuning

-=-=-=-=-=-=-=-=-=-=-=-= I'm Gonna Crawl =-=-=-=-=-=-=-=-=-=-=-=-=-=-=-=-=-=-
In Through The Out Door
by Jimmy Page, Robert Plant, & John Paul Jones

Chords: v = downstroke XX = Percussive sound
C - 032010 = slide up with no pitch
Am - 002210 / = slide down (5) = Suggested note
A - 355433
Ab - 577655


To play this song, Page uses a guitar set on distortion, but the
volume knob on it is turn down to a point near clean tone; with just
a little hint of crunch to it. The three way (or 5 way) is in the
treble position.



Riff 1:

C Am
e|--------------------0---------------------------------------0-----35------
b|-------------------------1----------------------------1--------------------
g|--------------0---------------0-----------------2--------------------------
d|--------2---------------------------------2--------------------------------
a|--3---------------------------------0--------------------------------------
E|---------------------------------------------------------------------------


Riff 2:
(when Robert is going "cause she is my girl")

v
e|---------5-----------------X-|
b|---------5-----------------X-|
g|---------5-----------------X-|
d|--3--7-----------7-----5----|
a|--5--7-----------7-----5----|
E|--5--5-----------5-----3----|


Riff 3:
(This is the "If she would come back and only stay")

e|---------------------------------------------------------------------------
b|---------------------------------------------------------------------------
g|--7-----------7----------------------9------2-----------------------------
d|--7-----------7----------(7)---------9------2-----------------------------
a|--5-----------5----------(7)---------7------0-----------------------------
E|-------------------------(5)-----------------------------------------------


A Ab

e|-------------------------------------------------------5----3-------------
b|-------------------------------------------------------5----3-------------
g|-------------------------------------------------------6----4-------------
d|--9--9--9--9--9-----9--9--9--9--9-----9--9--9--9--9----7----5-------------
a|--9--9--9--9--9-----9--9--9--9--9-----9--9--9--9--9----7----5-------------
E|--7--7--7--7--7-----7--7--7--7--7-----7--7--7--7--7----5----3-------------




Lyrics:

Oh, she's ...(Riff 1)

'Cause she .....(Riff 2)

Hey, I love that ...(Riff 1)

'Cause I get ...(Riff 2)


If she would ...(Riff 3)


I don't have to ...(Riff 1)
I'm Gonna ... (C chord at
end of Riff 1)


I'll post the solo once I figure it out... but here's all I know..
If anyone knows the solo, then re-post this. Sorry for any mistakes
-----------------------------------
Here are some modifications
by edge@mindspring.com (Eric Gatley)

Riff 1 should be:

rake
C Ab G
e|------------------------3-5----
b|--------1-----------4---3------
g|------0---0-------5-----4------
d|----2-------2---6-------5------
a|--3----------------------------
E|-------------------------------



Riff 2 should be:
(when Robert is going "cause she is my girl")

Am
e|-------------5------------------X-
b|-------------5------------------X-
g|-------------5------------------X-
d|----------------------------------
a|----------------------------------
E|--3--3--5-------3--1--3-/-1-----



Riff 3 should be:

Seems to be arpeggios in D, arpeggios in G, then


Am G F

e|------------------------------------------------------------------
b|------------------------------------------------------------------
g|------------------------------------------------------------------
d|--7--7--7--7--7-----7--7--7--7--7-----7--7--7--7--7---------------
a|--7--7--7--7--7-----7--7--7--7--7-----7--7--7--7--7---------------
E|--5--5--5--5--5-----5--5--5--5--5-----5--5--5--5--5----3-----1----


that's all


Get this song at amazon.com      Ebay     Ringtones Ringtones  


Learn to play: Songwriting, Piano, Harmonica, Guitar
Also available at Muzikum: Led Zeppelin - Im Gonna Crawl lyrics

Related Led Zeppelin Tabs

Lemon Song Bass tabs
Night Flight tabs
Prison Blues tabs
Bron Yr Aur (Version 2) tabs
I'm Gonna Crawl tabs
Kashmir (the Right Way!) tabs
White Summer tabs
Stairway To Heaven 100% Right tabs
Moby Dick tabs
Traveling Riverside Blues tabs
Hot Dog tabs
In My Time Of Dying tabs
Remasters Disc 1 tabs
Down By The Seaside tabs
Rock & Roll tabs
Since I tabs
Stairway To Heaven (blair's Version)100% Correct tabs
Hot Dog Bass tabs
The Rover (2) tabs
What Is And What Should Never Be Bass tabs


Guitar Tabs









All tabs are property and copyright of their owners. All tabs provided for educational purposes only. Privacy Policy, DMCA