Led Zeppelin

I Cant Quit You Baby Tabs



More from Led Zeppelin

Led Zeppelin Tabs
Led Zeppelin Chords
Led Zeppelin Bass
Led Zeppelin Lyrics

Oh,_________                I can't quit you babe,
|---------------------------|---------------------------------|--5----
|---------------------------|---------------------------------|--5----
|---------------------------|---------------------------------|--5----
|---------------------------|---------------------------------|-------
|---------------------------|---------------------------------|--5----
|---------------------------|---------------------------------|-------


so I'm gonna put you down for a while Full
----------------------------------------------------------------------
-----------------------------------------------------------------5----
-------------------------------------------x------------------7-------
----------------------------------------------------------------------
----------------------------------------------------------------------
----------------------------------------------------------------------


Full Full Full Full
-----------------------------------------|----------------------------
8p5---8~~~---(8)--5----------------------|------5h8p5------8~~~-------
---------------------7--5--6~~~--(6)/16--|---7--5---------------------
-----------------------------------------|----------------------------
-----------------------------------------|----------------------------
-----------------------------------------|----------------------------


Full I can't quit you babe, 2
-----------------------------------------|----------------------------
-(8)\7-~~~---------------------------10--|--(10)~~~-------------------
-----7-----------------------------------|----------------------------
-----------------------------------------|----------------------------
-----------------------------------------|----------------------------
-----------------------------------------|----------------------------


I guess I've got to put you down_ Full
----------------------------------------------|-----------------------
----------------------------------------------|---------5--5--8p5-----
----------------------------------------------|------7----------------
----------------------------------------------|-----------------------
----------------------------------------------|-----------------------
----------------------------------------------|-----------------------


Full Full Full
------------------------|---------------------------|-----------------
-8~~~--(8)--------------|------5--5--8p5------------|-----------------
------------7--5--6~~~--|---7-------------5/-13~~~--|-----------------
------------------------|---------------------------|-----------------
------------------------|---------------------------|-----------------
------------------------|---------------------------|-----------------


Said, you messed up my..........
--------------------------------------/21--------------|--5-----------
-------------------------------------------------------|--5-----------
--------------------------------------------/18--------|--5-----------
-------------------------------------------------7-----|--------------
----------------------------------------------------0--|--5-----------
-------------------------------------------------------|--------------


made me mistreat my only child. Full
----------------------------------------------------------------------
-------------------------------------------------5--6-----------------
-------------------------------------------------6--7------7p5--7-----
-------------------------------------------------7--8-----------------
-------------------------------------------------7--8-----------------
-------------------------------------------------5--6-----------------


Full Full
-----------------------|----------------------------------------------
-----------------------|-----5-----6----------------------------------
p5-----5--7--7--7---7--|~~~--6-----7---7p5--7p5-----5-----------------
----7------------------|-----7-----8-------------7-----7--5h7p5-------
-----------------------|-----7-----8-----------------------------7----
-----------------------|-----5-----6----------------------------------


Said,you know I love you baby,
---------------||-----------------------------------------------------
---------------||-----------------------------------------------------
---------------||-----------------------------------------------------
5--------------||-----------------------------------------------------
---7--5--4~~~--||-----------------------------------------------------
---------------||-----------------------------------------------------


slide slide
----4--|--5---------5--------8----------------------------------------
----4--|--5---------5--------8----------------------------------------
----4--|--5---------5--------8----------------------------------------
x------|--------------------------------------------------------------
----4--|--5---------5--------8----------------------------------------
-------|--------------------------------------------------------------


my love for you I could never hide Full
-------------------------------|--------------------------------------
-------------------------------|------------------------------5--5----
-------------------------------|---------------------------7----------
-------------------------------|--------------------------------------
-------------------------------|--------------------------------------
-------------------------------|--------------------------------------


Full Full Full
---------------------------------|------------------------------------
8p5---8~~~---8p5-----------------|------5--5--8p5---------------------
------------------7--5--6~~~/19--|---7-------------4/14~~~~~~---------
---------------------------------|------------------------------------
---------------------------------|------------------------------------
---------------------------------|------------------------------------


Full You know I love you, baby (all slides)
-------|---|----------------------------------------------------------
-------|---|----------------------------------------------------------
-(14)--|---|---------------------------------------4--3--4--2--4------
-------|---|----------------------------------------------------------
-------|---|---------------------------------------5--4--5--3--5------
-------|---|----------------------------------------------------------


my love for you I could never hide
---|------------------------------------------------------------------
---|------------------------------------------------------------------
2--|--4-----2---------------------------------------------------------
---|------------------------------------------------------------------
3--|--5-----3\--------------------------------------------------------
---|------------------------------------------------------------------


Full Full Full Full
----------------------------------------5--------|--------------------
----5--5--8p5---8~~~---8p5-----------5---/11~~~--|---------5--5--8----
-7--------------------------7--5--6--------------|------7-------------
-------------------------------------------------|--7-----------------
-------------------------------------------------|--------------------
-------------------------------------------------|--------------------


Full Full
--------------------------------|-------------------------------------
p5---8~~~---8p5-----------5-----|--5~~~-------------------------------
-----------------7--5--6-----6--|-------------------------------------
--------------------------------|-------------------------------------
--------------------------------|-------------------------------------
--------------------------------|-------------------------------------


When I feel you near me little girl 2
-----------------------------------------------------|----------------
-------------------------------------------------13--|---(13)---------
-----------------------------------------------------|----------------
-----------------------------------------------------|----------------
-----------------------------------------------------|----------------
-----------------------------------------------------|----------------


I know you are my one........ 1/2
---------------------------------------------------------|--5---------
10~~~-------------------------------------------------7--|--5---------
------------------------------------------------------7--|--6---------
---------------------------------------------------------|--7---------
---------------------------------------------------------|--7---------
---------------------------------------------------------|--5---------


Full Full
6----------------------------------|----------------------------------
6----------------------------------|---------5-----6-----------5------
7------7p5--7p5-----5--7--7--7--7--|---7~~~--6-----7--------5---------
8----------------7-----------------|---------7-----8-----7------------
8----------------------------------|---------7-----8------------------
6----------------------------------|---------5-----6------------------


Guitar solo Full 1/2
||------5--------------8--9------10-------8--|------10--8-----8-------
||------5-----8/10~~~----------------10------|--10--------------------
||-------------------------------------------|------------------------
||-------------------------------------------|------------------------
||-------------------------------------------|------------------------
||-------------------------------------------|------------------------


Full 1/2
8---------8h9--9--10p9--10p9---10--10---8-------------8--9~~~--|------
---10~~~-----------------------------------10--10~~~-----------|------
---------------------------------------------------------------|------
---------------------------------------------------------------|------
---------------------------------------------------------------|------
---------------------------------------------------------------|------


Full 1/2 1 1/2
10p9---10-------------8------|--12---------------12-------------------
--------------10~~~------10--|------10--10--10-------10--10--10-------
-----------------------------|----------------------------------------
-----------------------------|----------------------------------------
-----------------------------|----------------------------------------
-----------------------------|----------------------------------------


1 1/2 1 1/2
-12-----------12--13--12--10------10----------------------------|-----
-----10--10-------------------13------13--13p12p10------10------|-----
----------------------------------------------------11------11--|-----
----------------------------------------------------------------|-----
----------------------------------------------------------------|-----
----------------------------------------------------------------|-----


2 2
----------------------------------------------------------------------
10--12--10--12p10------10------10---13------(13)-----10--10--10-------
-------------------11------11-----------------------------------------
----------------------------------------------------------------------
----------------------------------------------------------------------
----------------------------------------------------------------------


Full
--------|-------------------------------------------------------------
~~~--13\|----5--8p5--8p5----------------------------------------------
--------|/6----------------7--7--5--6--------------------5-----5------
--------|------------------------------7--5-----5--6--7-----7---------
--------|------------------------------------7------------------------
--------|-------------------------------------------------------------


Full 1/2
-----------8p5-----5--------------|-----------------------------------
----5h8p5-------8-----8p5---------|-------------5---------------------
-7--------------------------7--5--|--------5h6-----7--5--6------------
----------------------------------|--7--7-------------------5~~~------
----------------------------------|-----------------------------------
----------------------------------|-----------------------------------



-------------------------------------|--------------------------------
-------------------------------------|--------------------------------
-------------------------------------|--------------------------------
---5h7p5--5--------------------------|--------------------------------
0------------7--5--4~~~--5--4--5--4--|--5--4--5--4--5--4h5--5--4------
-------------------------------------|--------------------------------



-------------------------|--------------------------------------------
-------------------------|--------------------------------------------
-------------------------|------------------------5-----5--7p5--7-----
-------------x-----------|-------5-----5--7p5--7-----7----------------
5p4--5/7--0---/10-----x--|/7--7-----7---------------------------------
-------------------0-----|--------------------------------------------



-------------------8p5-----5-------------------------------------5----
5-----5--8p5--8p5-------8-----8p5-----------------------------8-------
5--7-------------------------------7p5h7p5--7p5-----5-----/7----------
-------------------------------------------------7-----7--------------
----------------------------------------------------------------------
----------------------------------------------------------------------


2 2 Full Full
|----------------------12--|--12--------------------------------------
|---13~~~---13p10~~~-------|------10~~~--5--------6-------------------
|--------------------------|-------------6--------7------7p5--7p5-----
|--------------------------|-------------7--------8-------------------
|--------------------------|-------------7--------8-------------------
|--------------------------|-------------5--------6-------------------


Full Full
---------------------------|------------------------------------------
------7--------------------|---------5-----6--------------------------
---5--7--7--7--7--7--7--x--|---7~~~--6-----7------7--7p5--7p5---------
7--------------------------|---------7-----8-------------------7------
---------------------------|---------7-----8--------------------------
---------------------------|---------5-----6--------------------------


Full Full
---------------5--||---10-----10-----8------10------------------|-----
------------5-----||---10-----10-----8------10------------------|-----
5-----5--6--------||----------------------------------------10--|-----
---7--------------||--------------------------------------------|-----
------------------||--------------------------------------------|-----
------------------||--------------------------------------------|-----


Full 1/2 Full Full
-10-----10------8--------------------------------|---10------10-------
-10-----10------------10--10~~~--(10)/20-----10--|--------------------
-------------------------------------------------|--------------------
-------------------------------------------------|--------------------
-------------------------------------------------|--------------------
-------------------------------------------------|--------------------


Full Full grad. release
10--8---10---------------|---10---------------------------10--|-------
---------------------10--|---10---------------------------10--|-------
-------------------------|------------------------------------|-------
-------------------------|------------------------------------|-------
-------------------------|------------------------------------|-------
-------------------------|------------------------------------|-------


Full Full
----------------------------------------8p5-----5---------------------
--------------------------------5--8p5-------8--5---------------------
-9--9p7\5--7p5-----5-----5---7---------------------7p5--7p5-----5-----
----------------7-----7--------------------------------------7--------
----------------------------------------------------------------------
----------------------------------------------------------------------


Full Full Full
-------------------|-------------------------------------------8------
-------------------|-----------------------------------5--8p5---------
-------------------|---9p7---7p5--7p5-----5-----5---7-----------------
7--5h7p5-----5--7--|-------------------7-----7------------------------
----------7--------|--------------------------------------------------
-------------------|--------------------------------------------------



p5-----5--5--5--|-----------------------------------------------------
----8-----------|-----------------------------------------------------
----------------|--------5--------------------------------------------
----------------|--0--7-----7--5h7p5-----5----------------------------
----------------|---------------------7-----7p5--5\4--5\4--5\4--5-----
----------------|-----------------------------------------------------


1/2
---------------------------------------------------|------------------
---------------------------------------------------|------------------
---------------------------------------------------|------------------
---------------------------------------------------|-------5----------
\4\5--4---5-----5-------------------5-----------x--|--5/6-----7--3----
-------------7-----8--5h8--5--5--7-----8--8--7-----|------------------


Full
----------------------------------------------------------------|-----
----------------------------------------------------------------|-----
-------------------------------------------------------------0--|-----
---------------------------5-----5h7--7---7--7--5h7p5-----5-----|-----
h5p3p0--3----------5/6--7-----7------------------------7--------|-----
-----------5--5p0-----------------------------------------------|-----


Full Full
---------------------------8p5-----5--5--------8--9--10--|--10--------
-------------------5--8p5-------8--------8/10------------|------------
----------------7----------------------------------------|------------
5---7~~~-----5\------------------------------------------|------------
----------7----------------------------------------------|------------
---------------------------------------------------------|------------


Full 1/2 Full 1/2
-10------8-------------10---10--8-----------------|-------------------
------------10~~~--10--------------10~~~--(10)\5--|--6----------------
-----------------------------------------------6--|--7------7p5--7----
-----------------------------------------------7--|--8----------------
--------------------------------------------------|-------------------
--------------------------------------------------|-------------------


Full
-------------------------------------5--------------------------------
-------------------5--5--8p5--8p5h8------8--------5--5-----5----------
p5-----5-----5--7---------------------------------------7-----7p5-----
----7-----7-----------------------------------------------------------
----------------------------------------------------------------------
----------------------------------------------------------------------


1/2 1/2 1/2 1/2 1/2
----------------------------------------------------------------------
-----------5-----6----------------------------------------------------
---7p5~~~--6-----7---7--(7)---(7)--(7)---(7)--(7)---(7)--(7)---(7)----
7----------7-----8----------------------------------------------------
-----------7-----8----------------------------------------------------
-----------5-----6----------------------------------------------------


Full When I hear you moanin and groanin,..
-------||-------------------------------------------------------------
-------||-------------------------------------------------------------
-------||-------------------------------------------------------------
----7--||~~~----------------------------------------------------------
-------||-------------------------------------------------------------
-------||-------------------------------------------------------------


slide you know it hurts me.............
------4---------5------------------------------------------|----------
------4---------5------------------------------------------|----------
------4---------5------------------------------------------|----------
-----------------------------------------------------------|----------
------4---------5------------------------------------------|----------
-----------------------------------------------------------|----------


Full Full Full
----------5-----------------------------------------------------------
----5--5-----8p5---8~~~--------5/14------5--5--8p5---/10/13/15/17-----
-7-----------------------7--5---------7-------------------------------
----------------------------------------------------------------------
----------------------------------------------------------------------
----------------------------------------------------------------------


when you hear me moanin' an'........ Full
|---------------------------------------------------------------------
|----------------------------------------------------------7--7-------
|----------------------------------------------------------7--7-------
|---------------------------------------------------------------------
|---------------------------------------------------------------------
|---------------------------------------------------------------------


Full Full Full 1 1/2 you know it hurts...........
--------------------------------------------------------------|-------
-7--7---7--7---7--7---7---------------------------------------|-------
-7--7---7--7---7--7---7--x------------------------------------|-------
--------------------------------------------------------------|-------
--------------------------------------------------------------|-------
--------------------------------------------------------------|-------


Full Full Full
----------------------------------------5-----------|-----------------
----5--5--8p5---8~~~--8--5-----------5---/10~~~--x--|------5--5--8----
-7--------------------------7--5--6-----------------|---7-------------
----------------------------------------------------|-----------------
----------------------------------------------------|-----------------
----------------------------------------------------|-----------------


Full slide When,you hear me holler,baby..
--------------4------|-----7------------------------------------------
p5---8~~~-----4------|-----7------------------------------------------
--------------4------|-----7------------------------------------------
---------------------|------------------------------------------------
--------------4------|-----7------------------------------------------
---------------------|------------------------------------------------


slide
-------/16-------------|------------5--------|------------------------
----------/17----------|------------5--------|-----5--------6---------
-------------/16/12\---|------------5~~~~~~--|-----6--------7---------
-----------------------|---------------------|-----7--------8---------
-----------------------|------------5--------|-----7--------8---------
--------------------0--|---------------------|-----5--------6---------


Full Full
------------------------------------------------8---------------------
----------------------------------------------------------5-----------
-7-----7p5-----5--7-----7-----7-----7--7--7---------7~~~--6-----------
------------7---------------------------------------------7-----------
----------------------------------------------------------7-----------
----------------------------------------------------------5-----------


Full
------------------------------------8p5-----5-----8p5--|--------------
6----------------------------------------8-------------|--------------
7------7p5--7p5-----5----------------------------------|--------------
8----------------7-----7--5h7p7------------------------|--------------
8------------------------------------------------------|--------------
6------------------------------------------------------|--------------



------------||--------------------------------------------------------
5--------6--||--------------------------------------------------------
6--------7--||--------------------------------------------------------
7--------8--||--------------------------------------------------------
7--------8--||--------------------------------------------------------
5--------6--||--------------------------------------------------------
Get this song at amazon.com      Ebay     Ringtones Ringtones  


Learn to play: Songwriting, Piano, Harmonica, Guitar
Also available at Muzikum: Led Zeppelin - I can't quit you baby lyrics

Related Led Zeppelin Tabs

I'm Gonna Crawl tabs
We're Gonna Groove tabs
Hot Dog Bass tabs
Street Corner Girl Bass tabs
Moby Dick tabs
Dyer Maker Bass tabs
Time Of Dying tabs
Thats The Way Live tabs
Were Gonna Groove Bass tabs
White Summer tabs
Immigrant Song tabs
Led Zeppelin 4 Album tabs
Walters Walk tabs
Ramble On tabs
Crunge Bass tabs
Wanna Whole Lotta Love tabs
The Girl I Love Intro tabs
The Rover Solo tabs
Since I tabs
Out On The Tiles tabs


Guitar Tabs









All tabs are property and copyright of their owners. All tabs provided for educational purposes only. Privacy Policy, DMCA