Led Zeppelin

I Can't Quit You Baby (version From "coda") Bass Tabs



More from Led Zeppelin

Led Zeppelin Tabs
Led Zeppelin Chords
Led Zeppelin Bass
Led Zeppelin Lyrics



Standard Tuning

12/8 time
G|------------------------|------------------5-----|------------------------|
D|------------------------|------4---4-7---7---4-7-|------------------5-6-7-|
A|------------------------|5---5-------------------|------4---4-7---7-------|
E|------------------------|------------------------|5---5-------------------|

G|------------------------|------------------5-6-7-|----------------5-75----|
D|------------------5---7-|------4---4-7---7-------|------4---4-7----7--7-56|
A|------4---4-7---7-------|5---5-------------------|5---5-------------------|
E|5---5-------------------|------------------------|------------------------|

G|------------------------|------------------------|----------------7-9---7-|
D|------------------5-6-7-|------------------5-6-7-|------6---6-9----9-9-9-7|
A|------4---4-7---7-------|------4---4-7---7-------|7---7---------------7---|
E|5---5-------------------|5---5-------------------|------------------------|

G|------------------------|------------------------|------------------------|
D|------4-5-67-7--2-3-5-6-|7-----------------------|------------------------|
A|5---5---------0---------|------0-----1-----------|0-----0-----1-----------|
E|------------------------|------------------------|------------------------|
3/3/3/

G|------------------------|----------5-7-----------|------------------------|
D|------------------5-6-7-|------4-7------7----5---|------------------5-----|
A|------4-5-6-7---7-------|5---5-----------5-7---7-|------4-5-6-7---7-------|
E|5---5-------------------|------------------------|5---5---------------8-7-|

G|------------------------|----------5-7---------8-|7-----------------------|
D|----------5-7-----------|------4-7------7----8---|----7---------------5-7-|
A|------4-7-------0-3-0-4-|5---5-----------5-6-----|------5---0-5---6-7-----|
E|5---5-------------------|------------------------|------------------------|

G|------------------------|---------------555------|------9-----------------|
D|------------------5-6-7-|------------5-----7--567|--------9-6-------------|
A|------4---4-7---7-------|------4---47--7-----7---|7---7-------7-----6-----|
E|5---5-------------------|5---5-------------------|------------------------|
3/3/3/3/

G|------------------------|---------------------3--|2-2-------------------20|
D|------4-5-6-7-4---5--42-|--------------------3--3|---------------------2--|
A|5---5-----------5------3|0-----0-----1-----------|------0-----1-----1-4---|
E|------------------------|------------------------|------------------------|
3/3/

Guitar Solo
G|2-----0-----------------|------------------------|------------------------|
D|------------4----2------|------------------------|------------------------|
A|---------------------4--|5---5-3-----2-----1-----|0---0-4---4-5---6---7---|
E|------------------------|------------------------|------------------------|

G|------------------------|------------5-5--7-5----|------------------------|
D|7---5-----7-75----------|------4-5-7-----7----456|7-----------------------|
A|--------7------7--3-4-4-|5---5---------------5---|------4-5-6-7---------3-|
E|----------------5-------|------------------------|----5-----------0-3-5---|
3/3/ 3/3/

G|------------------------|------6-4---------9-----|------4-2---4-2---------|
D|----------5-7--7---7----|----------6-------------|----------4----4-2------|
A|------4-7-----7---5---6-|7-----------7---7-----6-|5---5--------------3-1--|
E|5---5--------5---5---5--|------------------------|------------------------|

G|---------------------3--|2-2---------------------|------------------------|
D|--------------------3--2|------------------------|------------------------|
A|0-----0-----1-----------|------0-----1-----------|0-----------------------|
E|------------------------|------------------------|------------------------|

G|------------------------|------------------------|---------------5--------|
D|------------------------|------------------------|---------5--77----7-----|
A|------------------------|------------------------|-----------7--7--7-55550|
E|------------------------|------------------------|555555555---------------|

G|------------5-577-------|------------------------|----------------------5-|
D|------4-5-7-------5-577-|------------------------|----------5-7-----5-----|
A|5---5------------5------|------4-5---6---7-------|------4-7---------------|
E|-----------------------5|5---5---------------3-4-|5-----------------------|

G|------9-7---------------|------------------------|------------------------|
D|----------9----9-9--9---|------7-7---------------|------------------------|
A|7-----------7---7--7-076|5------5-0530-3-4-5-----|------0-----1-----------|
E|------------------------|--------------------3-4-|0-----------------------|

G|------------------------|------------------------|------------------------|
D|------------------------|------------------------|------------------------|
A|0-----0-----1-----------|0-----0-----1-----------|------------------------|
E|------------------------|------------------------|------------------------|



Get this song at amazon.com      Ebay     Ringtones Ringtones  


Learn to play: Songwriting, Piano, Harmonica, Guitar
More Led Zeppelin lyrics available at Muzikum

Related Led Zeppelin Bass Tabs

For Your Life bass
The Crunge bass
Rock & Roll bass
Crunge bass
Rock And Roll bass
The Wanton Song bass
Dazed And Confuzed bass
Whole Lotta Love Bass Tabs bass
California Girl bass
Gallows Pole bass
Black Dog (tabbed From Notes) bass
Good Times Bad Times bass
Hey Hey What Can I Do bass
Custard Pie bass
Bring It On Home Alternate Version bass
The Ocean (100% Correct) bass
You Shook Me bass
Most High bass
Rock N Roll bass
Ozone Baby bass


Guitar Tabs









All tabs are property and copyright of their owners. All tabs provided for educational purposes only. Privacy Policy, DMCA

Online converter - videoconverter.com