Led Zeppelin

How Many More Times Intro Bass Tabs



More from Led Zeppelin

Led Zeppelin Tabs
Led Zeppelin Chords
Led Zeppelin Bass
Led Zeppelin Lyrics




This is just the beginning of the song but yeah here it is



G|------------------------|------------------------|
D|------------------------|------------------------|
A|------7---5-------5-----|------7-----5---------5-|
E|0-----------7-----------|0-----------------7-----| 23x

G|------------------------|------------------------|
D|------------------------|------------------------|
A|------7---5-------5-----|5-5---5-----------------|
E|0-----------7-----------|------------5-5---5-----|

G|------------------------|------------------------|
D|------------------------|------------------------|
A|------7---5-------5-----|------7-----5---------5-|
E|0-----------7-----------|0-----------------7-----| 14x

Long live the rocking legend John Paul Jones



Get this song at amazon.com      Ebay     Ringtones Ringtones  


Learn to play: Songwriting, Piano, Harmonica, Guitar
More Led Zeppelin lyrics available at Muzikum

Related Led Zeppelin Bass Tabs

Bring It On Home Alternate Version bass
Stair Way To Heaven (out Of The Golden Book) bass
Out On The Tiles (complete) bass
Black Country Woman bass
California Girl bass
Nobodys Fault But Mine bass
The Ocean-perfect bass
Boogie With Stu bass
Stairway To Heaven bass
Dazed And Confused (finally Correct?) bass
Since I've Been Loving You bass
Wearing And Tearing bass
Misty Mountain Hop bass
Hots On For Nowhere bass
We're Gonna Groove bass
Dazed And Confuzed bass
Living Loving Maid bass
Lemon Song Bass Solo bass
Lemon Song (main Riff) bass
Rock And Roll bass


Guitar Tabs









All tabs are property and copyright of their owners. All tabs provided for educational purposes only. Privacy Policy, DMCA