Led Zeppelin

Heartbreaker I Swear It's 100 Freakin % Perfect Tabs



More from Led Zeppelin

Led Zeppelin Tabs
Led Zeppelin Chords
Led Zeppelin Bass
Led Zeppelin Lyrics



riff 1
e------------------------------------------]
B------------------------------------------]
G------------------------------------------]
D------------------------------------------] repeat a few times
A---------------1-2-----------------1-2----]
E-------0--3--5------3---0000--3--5------3-]
riff 2
e------------------------------------------]
B------------------------------------------]
G------------------------------------------] repeat a few times
D---------------1-2-----------------1-2----]
A-------0--3--5------3---0000--3--5------3-]
E------------------------------------------]

then
A5 D5
hey fellas have ....you know that
A5 D5
An-nies back in ....see how the
A5 D5
fel-las ley thier ... same as it
A5 D5
was so long .... f'rent smile like
A5 D5 A5 D5 A5 D5 A5
that of one who knows_______

then
riff 1
e------------------------------------------]
B------------------------------------------]
G------------------------------------------]
D------------------------------------------] repeat a few times
A---------------1-2-----------------1-2----]
E-------0--3--5------3---0000--3--5------3-]
riff 2
e------------------------------------------]
B------------------------------------------]
G------------------------------------------] repeat a few times
D---------------1-2-----------------1-2----]
A-------0--3--5------3---0000--3--5------3-]
E------------------------------------------]

then
A5 D5
It's been ten .... since i
A5 D5
first set eyes .... by, here i
A5 D5
am a-lone and .... die by the
A5 D5
Wick-ed ways of .... long with the
A5 D5 A5 D5 A5 D5 A5
grace of the Lord a-bove________

e-----------------------------------------]
B-----------------------------------------]
G-----------------0-------------------0---]
D-------1---3---4-----------1---3---4-----] repeat a few times
A----3--------------1--3333-------------1-]
E-----------------------------------------]

e-----------------------------------------------]
B-----------------------------------------------]
G------------0----1-2-----------------0--1-2----]
D----0---3--------------------0000-3------------] do once
A----------------------3----------------------3-]
E-----------------------------------------------]

e------------------------------------------------]
B-----------------0--------------------------0---]
G-------0---2---3----------------0-----2---3-----]
D----2--------------0-------2222---------------0-] do once
A------------------------------------------------]
E------------------------------------------------]
way you call me another guys name when i try to make love to you________________

solo
e--------------------|--------------------|-------------------------|
B--------------------|--------------------|-------------------------|
G--2~~~h5p2p0--------|--2~~~h5p2p0--------|-------------------------|
D--------------2p0---|-------------2p0----|-------------------------|
A------------------3-|-----------------3--|-------------------------|
E--------------------|--------------------|-------------------------|

e-------------------------------------------------------------------|
B-------------------------------------------------------------------|
G-2~~h5p2p0h5p2p0h5p2p0h5p2p0h5p2p0h5p2p0-h5b8r7p2p0-h5b8r7p2p0-----|
D-------------------------------------------------------------------|
A-------------------------------------------------------------------|
E-------------------------------------------------------------------|


e-------------------------------------------------------------------|
B-------------------------------------------------------------------|
G-h5b8r7p2p0-h5b8r7p2p0-h5b8r7p2p0-h5b8r7p2p0---5b9r5b9r5b9r5b9r5---|
D-------------------------------------------------------------------|
A-------------------------------------------------------------------|
E-------------------------------------------------------------------|


e----------------|-----------------------|--------------------------|
B----------------|-----------------------|--------------------------|
G----5-7b9-7b9---|-----5--7b9-7b9r7-5----|----5-7b9r7b9r7b9r7b9~----|
D--7-------------|--7-----------------7--|--7-----------------------|
A----------------|-----------------------|--------------------------|
E----------------|-----------------------|--------------------------|

e-------------------------------------------------------------------|
B------------------------------------------5-5--8p5-5---5-5--8p5----|
G-7b9r7-5-----7b9r7-5-----7b9r7-5----5-7b-------------7----------7b9|
D---------7-----------7-----------7---------------------------------|
A-------------------------------------------------------------------|
E-------------------------------------------------------------------|

e-------------------------------------8p5-7---------8p5-7-----5h8p5-|
B--5-8p5--5-5-5-5-8p5-------5--8p5-5--------5h7--5--------5h7-------|
G---------------------7--7b-----------------------------------------|
D-------------------------------------------------------------------|
A-------------------------------------------------------------------|
E-------------------------------------------------------------------|

e------8p5-7p5--5------5---8--11--11p8---10p8-8---------------------|
B-7-5-------------/10----------------------------8h10---------------|
G-----------------------------------------------------8-9-8-8-9--6-7|
D-------------------------------------------------------------------|
A-------------------------------------------------------------------|
E-------------------------------------------------------------------|

e-------------------------------------------------------------------|
B-------------------------------------------------------------------|
G--7---4-5-4--------------4-5p4-------------------------------------|
D------------6-5------4-5--------7----7-7--4h5p4---4h5p4------------|
A----------------0-7---------------0-------------7-------7-0-0-4-3--|
E-------------------------------------------------------------------|

e-----------|------------------------5------------------------------|
B-----------|---------------------5-----8p5-------------------------|
G-----------|-------------2--4s6--------------7b9--8p7-5--7p5-------|
D-----------|---------2-4-------------------------------------7p5---|
A--5-3-4----|-0--2-4----------------------------------------------7-|
E--------3~-|-------------------------------------------------------|

e----------------------------------5--------------------------------|
B--------------------------------5---8p5-8p5------------------------|
G---------5--7--5h7p5---5-7--7b9-------------7-8-8b---5-5h7--5----5-|
D--5h6h7--------------7----------------------------------------7----|
A-------------------------------------------------------------------|
E-------------------------------------------------------------------|

e--------------5--5-------------------------------------------------|
B------------5-------8~~-----------9-------7-------5-----4-----3~~\-|
G--5--5h6--6--------------------------------------------------------|
D---------------------------0---9------7-------6------5-----4~~~~~\-|
A-------------------------------------------------------------------|
E-------------------------------------------------------------------|

Repeat this 8 times:

A7 A13sus4 A7 A6
e-------------------------------------------------------------------|
B---2------3------5-------7-----5------3----------------------------|
G---0------0------0-------0-----0------0----------------------------|
D---2------4------5-------7-----5------4----------------------------|
A---0------0---------------------------0----------------------------|
E-------------------------------------------------------------------|


e--3~~--------------------5~~------------------|
B--1~~--------------------3~~------------------|
G--0~~--------------------0~~------------------|
D--2~~--------------------4~~------------------|
A--0~~--------------------0~~------------------|
E----------------------------------------------|

e----------------------|-----------------------|
B----------------------|-----------------------|
G----------------------|-----------------------|
D------------5-5--4--2-|------------5-5--4--2--|
A--0~---3-4------------|--0~---3-4-------------|
E----------------------|-----------------------|

Next solo break:


e------------------------------------5----------8-9--10p9-10p8-10b12|
B------------------------------5--7-----/10~~-----------------------|
G------------2-------2-2--5-6---------------------------------------|
D------------2---4--------------------------------------------------|
A-------3s4---------------------------------------------------------|
E--4s5--------------------------------------------------------------|

e-10b12-10b12r10---8-9-10-8-9---------------------------------------|
B------------------------------10--10b12-10b11-10b11-10b11-10b11-10-|
G-------------------------------------------------------------------|
D-------------------------------------------------------------------|
A-------------------------------------------------------------------|
E-------------------------------------------------------------------|

e-----------------12--12b14~---12b14--12b13--12b14-12b13--12b15~----|
B----8---------10---------------------------------------------------|
G-----------11------------------------------------------------------|
D-------------------------------------------------------------------|
A-------------------------------------------------------------------|
E-------------------------------------------------------------------|

e--12b14--12b13r12p10-----10----------------------------------------|
B---------------------13-----13---10h13p10----10-13-10h13p10-----10-|
G------------------------------------------12----------------12-----|
D-------------------------------------------------------------------|
A-------------------------------------------------------------------|
E-------------------------------------------------------------------|

e-------------------------------------------------------------------|
B-13-10h13p10-----10-13-10h13p10-----10-13--10-12-10-10h12p10----10-|
G-------------12-----------------12---------------------------11----|
D-------------------------------------------------------------------|
A-------------------------------------------------------------------|
E-------------------------------------------------------------------|

e-------------------------------------------------------------------|
B--13p10-12p10-----10h13p10--10h12p10-----10h13p10-12-10-10-13b15---|
G--------------11---------------------11----------------------------|
D-------------------------------------------------------------------|
A-------------------------------------------------------------------|
E-------------------------------------------------------------------|

e-------------------------------------------------------------------|
B--13b17~----10----13p10-----10--13b17~~~--13b17~~--13b17--10-----13|
G---------------13-------13-----------------------------------12----|
D-------------------------------------------------------------------|
A-------------------------------------------------------------------|
E-------------------------------------------------------------------|

e--------------------------|
B--10------------5--5------|
G----------7b9-------------|
D--------------------------|
A--------------------------|
E--------------------------|


A G A C A G
e---------------------------|
B---5---3---5~--8---5--3----|
G---6---4---6~--9---6--4----|
D---7---5---7~--10--7--5----|
A---7---5---7~--10--7--5----|
E---------------------------|

e---------------------------------------------------5---------------|
B-------------------------------------------------5---/10~~-10b13---|
G--------------------------------------2---4--5s6-------------------|
D----7-------------------------------2---4--------------------------|
A-------3--0-0----------------3s4-----------------------------------|
E----------------3--3--5--5-----------------------------------------|

e-------------------------------------------------------------------|
B--10b11-10b13-10b11-10b14-10b14~~~~~---10b13r10--------8--8--8--8--|
G---------------------------------------------------/7--9--9--9--9--|
D-------------------------------------------------------------------|
A-------------------------------------------------------------------|
E-------------------------------------------------------------------|

(second guitar plays a high A5 chord)
e---------------------------------------14p12-----14p12-----14p12---|
B--8---8---8-8-8-8--8-8-8-8--8-8-8-8----------13--------13--------13|
G--9---9---9-9-9-9--9-9-9-9--9-9-9-9--------------------------------|
D-------------------------------------------------------------------|
A-------------------------------------------------------------------|
E-------------------------------------------------------------------|

e--14p12------14--12---12--12---------15----15----15~---15~---15~---|
B--------13------------12--13-----/17----17----17----17----17----17\|
G-------------------------------------------------------------------|
D-------------------------------------------------------------------|
A-------------------------------------------------------------------|
E-------------------------------------------------------------------|

A5 D5
Heartbreaker your .... evil ways
A5 D5 A5 D5 A5 D5 A5 D5 A5 D5 A5 A5
go away heartbreaker_____

then go back to

riff 1
e------------------------------------------]
B------------------------------------------]
G------------------------------------------]
D------------------------------------------] repeat a few times
A---------------1-2-----------------1-2----]
E-------0--3--5------3---0000--3--5------3-]

AND THATS IT



Get this song at amazon.com      Ebay     Ringtones Ringtones  


Learn to play: Songwriting, Piano, Harmonica, Guitar
More Led Zeppelin lyrics available at Muzikum

Related Led Zeppelin Tabs

Bron Y Aur Stomp2 tabs
Celebration Day Remasters tabs
Stairway To Heaven 100% Right tabs
Four Sticks tabs
Ramblin Man tabs
Heart Breaker (intro) tabs
Dyer Maker Bass tabs
White Summer/black Mountain Side tabs
Lemon Song Bass tabs
White Summer tabs
Black Mountain Side tabs
The Immagrant Song tabs
The Girl I Love tabs
Hey Lady tabs
For Your Life Bass tabs
Gallows Pole ( Mandolin ) tabs
The Battle Of Evermore (chords) tabs
Darlene Bass tabs
Heartbreaker tabs
Celebration Day tabs


Guitar Tabs









All tabs are property and copyright of their owners. All tabs provided for educational purposes only. Privacy Policy, DMCA

Online converter - videoconverter.com