Led Zeppelin

Heart Breaker Tabs



More from Led Zeppelin

Led Zeppelin Tabs
Led Zeppelin Chords
Led Zeppelin Bass
Led Zeppelin Lyrics




this is the tab my teacher taught me it works a hell of a lot better


-------------------------------------
-------------------------------------
------------------------------------- x2
----------0-0-2--------------0-0-2---
------0-3----------0-0-0-0-3---------
--3b------------3------------------3-



-----------------------------------------------------------------------------
------------------------------------------------------------------------------
------------------------------------------------------------------------------
---0-2-2-4------------0-2-2-4--------0-0-2------------------7----------------
-2---------2--2-2-2-2---------2--0-3-------------7-7---10---5--7-7---10----------
-------------------------------------------3-----5-5---8-------5-5---8---------


look at other tabs for solos



Get this song at amazon.com      Ebay     Ringtones Ringtones  


Learn to play: Songwriting, Piano, Harmonica, Guitar
Also available at Muzikum: Led Zeppelin - Heart Breaker lyrics

Related Led Zeppelin Tabs

Black Dog Intro And Chorus tabs
I Got A Women Intro tabs
Dyer Maker tabs
As Long As I Have You Live tabs
No Quarter Acoustic tabs
Stairway To Heavin tabs
In My Time Of Dying tabs
In The Evening tabs
For Your Life Bass tabs
Living Loving Maid (Shes Just A Woman) tabs
Lemon Song tabs
Four Sticks Bass tabs
Living Loving Maid tabs
Poor Tom tabs
Wearing And Tearing tabs
Friends tabs
Thats The Way tabs
No Quarter(100%) tabs
Bron Yr Aur (Version 2) tabs
South Bound Suarez Bass tabs


Guitar Tabs









All tabs are property and copyright of their owners. All tabs provided for educational purposes only. Privacy Policy, DMCA