Led Zeppelin

Heart Breaker (intro) Tabs



More from Led Zeppelin

Led Zeppelin Tabs
Led Zeppelin Chords
Led Zeppelin Bass
Led Zeppelin Lyrics




HEARTBREAKER
**!!NOTE: THIS TAB WAS WRITTEN SO THAT IT WAS IF YOU WERE LOOKING
AT THE GUITAR!!**

LOW E STRING

]---0--3---------0--0--0--0--0--3-----------0----0--3---------0--0--0--0--0-3-----------0-[
]--------0--1--2-------------------0--1--2------------0--1--2------------------0--1--2----[
]-----------------------------------------------------------------------------------------[
]-----------------------------------------------------------------------------------------[
]-----------------------------------------------------------------------------------------[
]-----------------------------------------------------------------------------------------[

HIGH E STRING
LOW E STRING

]---0--3----------0--0--0--0--0--3---------0----------------------------------------------[
]--------0--1--2-------------------0--1--2-----0---3-----------0--0--0--0--0--3---------0-[
]-----------------------------------------------------0--1--2-------------------0--1--2---[
]-----------------------------------------------------------------------------------------[
]-----------------------------------------------------------------------------------------[
]-----------------------------------------------------------------------------------------[

HIGH E STRING
ALTERNATIVE
LOW E STRING /= BEND STRING

]--/2--OR--/3-----------------------------------------------------------------------------[
]----------0--3---------0--0--0--0--0--3---------0--0--3-------0--0-0-0-0--3--------0-----[
]---------------0--1--2------------------0--1--2---------0--1--2------------0--1--2-------[
]-----------------------------------------------------------------------------------------[
]-----------------------------------------------------------------------------------------[
]-----------------------------------------------------------------------------------------[

HIGH E STRING
LOW E STRING

]-----------------------------------------------------------------------------------------[
]---0--3---------0--0-0-0-0--3---------0---4--7----------4--4-4-4-4--7-----------4--------[
]--------0--1--2---------------0--1--2-----------4--5--6----------------4--5--6-----------[
]-----------------------------------------------------------------------------------------[
]-----------------------------------------------------------------------------------------[
]-----------------------------------------------------------------------------------------[
REPEAT x2
HIGH E STRING



Get this song at amazon.com      Ebay     Ringtones Ringtones  


Learn to play: Songwriting, Piano, Harmonica, Guitar
Also available at Muzikum: Led Zeppelin - Heart Breaker Intro lyrics

Related Led Zeppelin Tabs

No Quarter Intro tabs
Candy Store Rock tabs
Whole Lotta Love tabs
Travelling Riverside Blues Bass tabs
Rock N Roll tabs
I'm Gonna Crawl tabs
Dancing Days tabs
Misty Mountain Hop tabs
Communication Breakdown tabs
In The Light tabs
Most High tabs
Four Sticks For 3 Guitars tabs
Black Dog Intro And Chorus tabs
The Girl I Love She Got Long Black Wavy Hair tabs
As Long As I Have You Live tabs
White Summer tabs
Bron Y Aur Stomp2 tabs
Black Dog Live tabs
Lemon Song tabs
Songremains tabs


Guitar Tabs









All tabs are property and copyright of their owners. All tabs provided for educational purposes only. Privacy Policy, DMCA