Led Zeppelin

Heart Breaker Bass Tabs



More from Led Zeppelin

Led Zeppelin Tabs
Led Zeppelin Chords
Led Zeppelin Bass
Led Zeppelin Lyrics




G----------------------------|------------------------------------|--------------------------
D------0-1-2----------0-1-2--|-------2--3-4-------------2-3-4-----|------0-1-2---------0-1-2-
A-0-3----------0000-3--------|---2--5-------2---2222-5---------2--|--0-3--------0000-3-------
E-----------3---------------3|------------------------------------|-----------3-------------3


G--9---9/-12----9----9/-12-----9--9/12-----9---9/12--0--12----9---9/12----9---9/12\----9--9/
D--7---7/-10----7----7/-10-----7--7/10-----7---7/10--0--10----7---7/10----7---7/10\----7--7/
A-------------------------------------------------------------------------------------------
E-------------------------------------------------------------------------------------------


G-/12---9--9/12-----7----7-------|
D-/10---7--7/10---7---7----7-----|
A-----------------------------9\-|
E--------------------------------| thats just about it but there are parts wen J. Paul-Jones 'spiced' it up a little. pretty easy.



Get this song at amazon.com      Ebay     Ringtones Ringtones  


Learn to play: Songwriting, Piano, Harmonica, Guitar
Also available at Muzikum: Led Zeppelin - Heart Breaker lyrics

Related Led Zeppelin Bass Tabs

Friends bass
Dancing Days bass
Bring It On Home Alternate Version bass
Misty Mountain Hop bass
Out On The Tiles (complete) bass
Lemon Song Bass Solo bass
Heartbreaker Complete bass
Stairway To Heaven bass
The Wanton Song (complete) bass
Sick Again bass
Rock N Roll bass
In The Evening bass
Bring It On Home bass
California Girls bass
No Quater bass
In My Time Of Dying bass
Since Ive Been Loving You bass
The Ocean (100% Correct) bass
Achelles Last Stand bass
Crunge bass


Guitar Tabs









All tabs are property and copyright of their owners. All tabs provided for educational purposes only. Privacy Policy, DMCA