Led Zeppelin

Gallows Pole 99 9% Correct Bass Tabs



More from Led Zeppelin

Led Zeppelin Tabs
Led Zeppelin Chords
Led Zeppelin Bass
Led Zeppelin Lyrics



Bassist:John Paul Jones
Tabber:Älex
Band:Led Zeppelin
G|----------------|----------------|----------------|
D|----------------|----------------|----------------|
A|----------------|----------------|----------------|
E|3-5-3-5-5-5-5-5-|3-5-3-5-5-5-5-5-|3-5-3-5-5-5-5-5-|

G|--------|
D|5-------|
A|----5---|
E|--------|

G|----------------|----------------|----------------|----------------|
D|----------------|----------------|----------------|----------------|
A|----------------|----------------|----------------|----------------|
E|3-5-3-5-5-5-5-5-|3-5-3-5-5-5-5-5-|3-5-3-5-5-5-5-5-|3-5-3-5-5-5-5-5-|

G|----------------|--------|
D|----------------|5-52----|
A|----------------|----5---|
E|3-5-3-5-5-5-5-5-|--------|

G|----------------|----------------|--------|
D|----------------|----------------|--------|
A|----------------|----------------|3---5---|
E|3-5-3-5-5-5-5-5-|3-5-3-5-5-5-5-5-|--------|

G|----------------|----------------|
D|----------------|----------------|
A|----------------|----------------|
E|3-5-3-5-5-5-5-5-|3-5-3-5-5-5-5-5-|

G|-------5--------|--------------5-|-------5--------|--------|
D|7---5-7-----5---|7-------5------5|7---5-------5---|5-52----|
A|--------5-79----|----5-79--------|--------5-79----|----5-2-|
E|----------------|----------------|----------------|-------5|

G|----------------|----------------|----------------|----------------|
D|----------------|----------------|----------------|----------------|
A|----------------|----------------|----------------|----------------|
E|3-5-3-5-5-5-5-5-|3-5-3-5-5-5-5-5-|3-5-3-5-5-5-5-5-|3-5-3-5-5-5-5-5-|

G|----------------|----------------|--------|
D|----------------|----------------|5-------|
A|----------------|----------------|----5---|
E|3-5-3-5-5-5-5-5-|3-5-3-5-5-5-5-5-|--------|

G|----------------|----------------|----------------|
D|----------------|----------------|----------------|
A|----------------|----------------|----------------|
E|3-5-3-5-5-5-5-5-|3-5-3-5-5-5-5-5-|3-5-3-5-5-5-5-5-|

G|--------|
D|5-------|
A|----5---|
E|--------|

G|----------------|----------------|
D|----------------|----------------|
A|----------------|----------------|
E|3-5-3-5-5-5-5-5-|3-5-3-5-5-5-5-5-|

G|-------5--------|--------------5-|-------5--------|--------|
D|7---5-7-----5---|7-------5------5|7---5-------5---|5-52----|
A|--------5-79----|----5-79--------|--------5-79----|----5-20|
E|----------------|----------------|----------------|--------|

G|----------------|----------------|----------------|----------------|
D|----------------|----------------|----------------|----------------|
A|----------------|----------------|----------------|----------------|
E|3-5-3-5-5-5-5-5-|3-5-3-5-5-5-5-5-|3-5-3-5-5-5-5-5-|3-5-3-5-5-5-5-5-|

G|----------------|----------------|--------|
D|----------------|----------------|5-52----|
A|----------------|----------------|----5-20|
E|3-5-3-5-5-5-5-5-|3-5-3-5-5-5-5-5-|--------|

G|----------------|----------------|----------------|----------------|
D|----------------|----------------|----------------|----------------|
A|----------------|----------------|----------------|----------------|
E|3-5-3-5-5-5-5-5-|3-5-3-5-5-5-5-5-|3-5-3-5-5-5-5-5-|3-5-3-5-5-5-5-5-|

G|----------------|--------|
D|----------------|5-52----|
A|----------------|----5-20|
E|3-5-3-5-5-5-5-5-|--------|

G|----------------|----------------|----------------|
D|----------------|----------------|----------------|
A|----------------|----------------|----------------|
E|3-5-3-5-5-5-5-5-|3-5-3-5-5-5-5-5-|3-5-3-5-5-5-5-5-|

G|--------|
D|5-------|
A|----5---|
E|--------|

G|----------------|----------------|----------------|----------------|
D|----------------|----------------|----------------|5-52------------|
A|----------------|----------------|----------------|----5320--------|
E|3-5-3-5-5-5-5-5-|3-5-3-5-5-5-5-5-|5-5-5-5-5-5-5-5-|--------3-5-3-5-|

G|----------------|
D|5-52------------|
A|----5320--------|
E|--------3-5-3-5-| x34



Get this song at amazon.com      Ebay     Ringtones Ringtones  


Learn to play: Songwriting, Piano, Harmonica, Guitar
More Led Zeppelin lyrics available at Muzikum

Related Led Zeppelin Bass Tabs

Rock N Roll bass
Four Sticks bass
Kashmir (live) bass
The Girl I Love She Got Long Black Wavy Hair bass
Im Gonna Crawl bass
Heartbreaker bass
Darlene bass
Bring It On Home bass
Dyer Maker bass
Heartbreaker Complete bass
Black Dog bass
Black Dog (tabbed From Notes) bass
Thats The Way bass
Gallows Pole bass
Trampeled Underfoot bass
Tangerine bass
Hey Hey What Can I Do bass
Stairway To Heaven Intro bass
The Ocean (100% Correct) bass
Houses Of The Holy bass


Guitar Tabs









All tabs are property and copyright of their owners. All tabs provided for educational purposes only. Privacy Policy, DMCA

Online converter - videoconverter.com