Led Zeppelin

Friends Bass Tabs



More from Led Zeppelin

Led Zeppelin Tabs
Led Zeppelin Chords
Led Zeppelin Bass
Led Zeppelin Lyrics




Standard Tuning

"double swing" beat
G|----------------|----------------|----------------|----------------|
D|----------------|----------------|----------------|----------------|
A|----------------|----------------|----------------|-------------333|
E|----------------|----------------|----------------|----------------|

G|----------------|----------------|----------------|----------------|
D|----------------|----------------|----------------|----------------|
A|3-------------33|3-------------33|3-------------33|3-------------33|
E|----------------|----------------|----------------|----------------|

11/8 time
G|----------------------|
D|----------------------|
A|3--6--5--8--7--10-9333|
E|----------------------|

4/4 tme
G|----------------|----------------|----------------|----------------|
D|----------------|----------------|----------------|----------------|
A|3-------------33|3-------------33|3-------------33|3-------------33|
E|----------------|----------------|----------------|----------------|

11/8 time
G|----------------------|
D|----------------------|
A|3--6--5--8--7--10-9333|
E|----------------------|


G|----------------|----------------|----------------|----------------|
D|----------------|----------------|----------------|----------------|
A|3-----------10--|9-----------10--|12----------7---|9-----------4---| X4
E|----------------|----------------|----------------|----------------|
Bright light almost blinding.....

G|----------------|----------------|----------------|----------------|
D|----------------|----------------|----------------|----------------|
A|3-----------10--|9-----------10--|12----------7---|9-----------4---|
E|----------------|----------------|----------------|----------------|

G|----------------|----------------|----------------|----------------|
D|----------------|----------------|----------------|----------------|
A|3-----------10--|9-----------10--|12--14------7---|9------------333|
E|----------------|----------------|----------------|----------------|

G|----------------|----------------|----------------|----------------|
D|----------------|----------------|----------------|----------------|
A|3-------------33|3-------------33|3-------------33|3-------------33|
E|----------------|----------------|----------------|----------------|

11/8 time
G|----------------------|
D|----------------------|
A|3--6--5--8--7--10-9333|
E|----------------------|

4/4 time
G|----------------|----------------|----------------|----------------|
D|----------------|----------------|----------------|----------------|
A|3-------------33|3-------------33|3-------------33|3-------------33|X4
E|----------------|----------------|----------------|----------------|
Mmm, I'm telling you now....

11/8 time
G|----------------------|
D|----------------------|
A|3--6--5--8--7--10-9333|
E|----------------------|

time
G|----------------|----------------|----------------|----------------|
D|----------------|----------------|----------------|----------------|
A|3-----------10--|9-----------10--|12----------7---|9-----------4---|X4
E|----------------|----------------|----------------|----------------|
Met a man on the road cryin'.....

G|----------------|----------------|----------------|----------------|
D|----------------|----------------|----------------|----------------|
A|3-----------10--|9-----------10--|12----------7---|9-----------4---|
E|----------------|----------------|----------------|----------------|

G|----------------|----------------|----------------|----------------|
D|----------------|----------------|----------------|----------------|
A|3-----------10--|9-----------10--|12--14------7---|9------------333|
E|----------------|----------------|----------------|----------------|

G|----------------|----------------|----------------|----------------|
D|----------------|----------------|----------------|----------------|
A|3-------------33|3-------------33|3-------------33|3-------------33|
E|----------------|----------------|----------------|----------------|

11/8 time
G|----------------------|
D|----------------------|
A|3--6--5--8--7--10-9333|
E|----------------------|

4/4 time
G|----------------|----------------|----------------|----------------|
D|----------------|----------------|----------------|----------------|
A|3-------------33|3-------------33|3-------------33|3-------------33|
E|----------------|----------------|----------------|----------------|
Mmm, I'm telling you now....

11/8 time
G|----------------------|
D|----------------------|
A|3--6--5--8--7--10-9333|
E|----------------------|


G|----------------|----------------|----------------|----------------|
D|----------------|----------------|----------------|----------------|
A|3---------------|----------------|3---------------|----------------| X4
E|----------------|----------------|----------------|----------------|



Get this song at amazon.com      Ebay     Ringtones Ringtones  


Learn to play: Songwriting, Piano, Harmonica, Guitar
Also available at Muzikum: Led Zeppelin - Friends lyrics

Related Led Zeppelin Bass Tabs

Stairway To Heaven bass
Black Country Woman bass
For Your Life bass
Communication Breakdown bass
Moby Dick (%100 Perfect I Promise) bass
The Lemon Song bass
Tangerine bass
Walters Walk bass
I Cant Quit You Baby bass
Ocean (perfect Riff) bass
Since Ive Been Loving You bass
Archilles Last Stand (fixed) bass
Achilles Last Stand bass
Custard Pie bass
Kashmir Intro bass
Communitcation Breakdown bass
Kashmir bass
We're Gonna Groove bass
Rock And Roll bass
Immigration Song bass


Guitar Tabs









All tabs are property and copyright of their owners. All tabs provided for educational purposes only. Privacy Policy, DMCA