Led Zeppelin

Four Sticks Bass Tabs



More from Led Zeppelin

Led Zeppelin Tabs
Led Zeppelin Chords
Led Zeppelin Bass
Led Zeppelin Lyrics



Four Sticks

Led Zeppelin



5/8 time 12/8 time

G|----------|----------|----------|----------|----------|------------------------|

D|----------|---5------|---5------|---5------|---5------|------------------------|

A|------4-5-|7-----4-5-|7-----4-5-|7-----4-5-|7-----4-5-|7-----------5-------4-5-|

E|----------|0---------|0---------|0---------|0---------|5-----------3-----------|



5/8 time 12/8 time

G|----------|----------|------------------------|

D|---5------|---5------|------------------------|

A|7-----4-5-|7-----4-5-|7-----------5-------4-5-|

E|0---------|0---------|5-----------3-----------|



5/8 time 12/8 time

G|----------| |------------------------|

D|---5------| |------------------------|

A|7-----4-5-| |7-----------5-------4-5-|

E|0---------| 10X |5-----------3-----------|



5/8 time 12/8 time

G|----------|----------|------------------------|

D|---5------|---5------|------------------------|

A|7-----4-5-|7-----4-5-|7-----------5-------4-5-|

E|0---------|0---------|5-----------3-----------|



5/8 time 12/8 time

G|----------| |------------------------|

D|---5------| |------------------------|

A|7-----4-5-| |7-----------5-------4-5-|

E|0---------| 10X |5-----------3-----------|



5/8 time 12/8 time

G|----------|----------|------------------------|

D|---5------|---5------|------------------------|

A|7-----4-5-|7-----4-5-|7-----------5-------4-5-|

E|0---------|0---------|5-----------3-----------|



G|------------------------|------------------------|

D|7-----5---5-7---7-----7-|7-------7-----7---7-7--7|

A|--0-----7------0----7---|-70------70----70----7--|

E|------------------------|------------------------|

And when the owls...



G|--------------------9---|------------------------|

D|--------7------7--7-----|7---7-7---7-7---7-7-7-7-|

A|0--------70---7-7-----7-|---7-----7-7---7-7---7-7|

E|------------------------|------------------------|



G|--------------99--------|------------99----------|

D|------5---7-7---7-9---9-|7--7--7-------7-7---7---|

A|0-------7-----------7---|---------------------97-|

E|------------------------|-----------------------9|



G|------------------------|------------------------||

D|---------5--7---7-------|------7--7---77-7--7----||

A|00-0-07-7--7------9-7---|0--7-7-7---7---7--7-4455||

E|----------------------9-|------------------------||



5/8 time 12/8 time

G|----------| |------------------------|

D|---5------| |------------------------|

A|7-----4-5-| |7-----------5-------4-5-|

E|0---------| 8X |5-----------3-----------|



5/8 time 12/8 time

G|----------|----------|------------------------|

D|---5------|---5------|------------------------|

A|7-----4-5-|7-----4-5-|7-----------5-------4-5-|

E|0---------|0---------|5-----------3-----------|



5/8 time 12/8 time

G|----------| |------------------------|

D|---5------| |------------------------|

A|7-----4-5-| |7-----------5-------4-5-|

E|0---------| 8X |5-----------3-----------|



5/8 time 12/8 time

G|----------|----------|------------------------|

D|---5------|---5------|------------------------|

A|7-----4-5-|7-----4-5-|7-----------5-------4-5-|

E|0---------|0---------|5-----------3-----------|



G|------------------------|------------------------|------------------------|

D|7-----7---7-797-----77--|------------7-7---7--7--|-----------57---7-9---9-|

A|--0-0----7-7-------7--7-|0--0-0--------------7-7-|0-770---777----7----77--|

E|------------------------|------------------------|------------------------|



G|------------------------|------------------9---9-|-9-----9-9--------------|

D|7-----7-7---7-----7-7---|------5----57-7--7-7---7|---7----7--7---7-----7--|

A|---7-7---7-7---777---7-7|0-000---7-7--7-7----7---|7---7-------7-7-7-7-7-74|

E|------------------------|------------------------|------------------------|



G|------------------------|--9-------9-------------|------------------------|

D|---5-5-5--5-7-7-----7---|77--7---77-7----7---7---|7-7---5---5-7-7---5-----|

A|0-----7-7-------7-----7-|------7------7--------7-|---7-7--7-------7---75-3|

E|------------------------|------------------------|------------------------|



G|------------9-----------|------------------------|----9-------------------|

D|----7---7-------7---5---|---7-5------------5-7--5|---7-7---7--5-579----7-5|

A|0-07--77--77--77--77--7-|0-----7-7-4-0--4-7----7-|077----77--7-7---7-0----|

E|------------------------|------------------------|------------------------|



G|----------9---------9---|---9-9---9--------------|------------------------|

D|------9-7---7---7----7--|7-----7-----7-77--------|---7-7--5-9-7-777---7---|

A|0000-0-7-----0-7-77---7-|-----------7----7-0--74-|0-----7-----------9---7-|

E|------------------------|------------------------|------------------------|



G|---9----------9---------||------------------------|------------------------|

D|7-7--7--7---7---77------||----7---------7-----9-7-|------7-----------7-----|

A|------07--7-------7-----||0-------70--0-----------|0--00--0-00-00-00--0-000|

E|------------------------||------------------------|------------------------|



G|------------------------|------------------------|------------------------|

D|----7---------7-----9-7-|------7-----------7-----|----7---------7-----9-7-|

A|0-------70--0-----------|0--00--0-00-00-00--0-000|0-------70--0-----------|

E|------------------------|------------------------|------------------------|



G|------------------------|------------------------|------------------------|

D|------7-----------7-----|----7---------7-----9-7-|7-------77--7-----------|

A|0--00--0-00-00-00--0-000|0-------70--0-----------|--0-------7---0-2-3-445-|

E|------------------------|------------------------|------------------------|



5/8 time 12/8 time

G|----------| |------------------------|

D|---5------| |------------------------|

A|7-----4-5-| |7-----------5-------4-5-|

E|0---------| 8X |5-----------3-----------|



5/8 time 12/8 time

G|----------|----------|------------------------|

D|---5------|---5------|------------------------|

A|7-----4-5-|7-----4-5-|7-----------5-------4-5-|

E|0---------|0---------|5-----------3-----------|



5/8 time

G|----------|

D|---5------|

A|7-----4-5-|

E|0---------| 35X



Led Zeppelin Is #1 BandAdded by tabs-database.com and our distinguished partners
Get this song at amazon.com      Ebay     Ringtones Ringtones  


Learn to play: Songwriting, Piano, Harmonica, Guitar
More Led Zeppelin lyrics available at Muzikum

Related Led Zeppelin Tabs

Ozone Baby tabs
Tangerine tabs
Traveling Riverside Blues tabs
Rain Song Intro tabs
In My Time Of Dying tabs
The Battle Of Evermore tabs
Houses Of The Holy tabs
The Ocean Live (the Song Remains The Same Film) tabs
Bron Y Aur Stomp tabs
Stairway To Heavin tabs
Hey Hey tabs
Travelling Riverside Blues Bass tabs
Dyer Maker tabs
Walters Walk tabs
Swan Song tabs
Hot Dog tabs
Im Gonna Leave You tabs
Four Sticks Bass tabs
Bring It Home tabs
The Ocean (live Version) tabs


Guitar Tabs









All tabs are property and copyright of their owners. All tabs provided for educational purposes only. Privacy Policy, DMCA