Led Zeppelin

Dryer Maker Bass Tabs



More from Led Zeppelin

Led Zeppelin Tabs
Led Zeppelin Chords
Led Zeppelin Bass
Led Zeppelin Lyrics




||------------------------0--------|----------------------------------|
|*----------------2---3------------|----------------------------------|
|*3-------3------------------------|-0-------0-----------0---3---0----|
||---------------------------------|----------------------------------|

| | | | | | | |
|----------------------------------|----------------------------------|
|----------------------------------|----------------------------------|
|----------------------------------|-------------------------0--------|
|-1-------1-------1----------------|-3---3---------------3------------|

| | | | | | | |
||------------------------0--------|---------------------------------||
|*----------------2---3------------|---------------------------------||
|*3-------3---3--------------------|-0-------0-----------0---3---0---||
||---------------------------------|---------------------------------||

>1| | | | | | | |
|----------------------------------|---------------------------------||
|----------------------------------|---------------------------------*|
|----------------------------------|-------------------------0-------*|
|-1-------1-------------------3----|-3---3-------3-------3-----------||

>2| | | | | | | |
|----------------------------------|----------------------------------|
|----------------------------------|----------------------------------|
|----------------------------------|----------------------------------|
|-1-------1-------------------1----|-3-----------3-----------3--------|

| | | | | | | |
|----------------------------------|----------------------------------|
|----------------------------------|----------------------------------|
|-0--------------------------------|----------------------------------|
|----------------------------------|----------------------------------|

| | | | | | | |
|----------------------------------|----------------------------------|
|----------------------------------|----------------------------------|
|----------------------------------|-------------------------0---2----|
|----------------------------------|---------------------3------------|

| | | | | | | |
|----------------------------------||---------------------------------|
|----------------------------------|*---------------------------------|
|----------------------------------|*0---0-------0---0----------------|
|----------------------------------||---------------------------------|

| | | | | | | |
|----------------------------------|----------------------------------|
|----------------------------------|----------------------------------|
|-0---0-------0---0----------------|----------------------------------|
|----------------------------------|-3---3-------3---3----------------|

>3| | | | | | | |
|---------------------------------||----------------------------------|
|---------------------------------*|----------------------------------|
|---------------------------------*|----------------------------------|
|-3---3-------3---3---------------||-1--------------------------------|

| | | | | | | |
|----------------------------------|----------------------------------|
|----------------------------------|----------------------------------|
|----------------------------------|----------------------------------|
|----------------------------------|-3--------------------------------|

| | | | | | | |
|----------------------------------|----------------------------------|
|----------------------------------|----------------------------------|
|-------------------------0---2----|----------------------------------|
|---------------------3------------|----------------------------------|

| | | | | | | |
|----------------------------------|----------------------------------|
|----------------------------------|----------------------------------|
|-0--------------------------------|----------------------------------|
|----------------------------------|----------------------------------|

-----0--------|----------------------------------|
|*----------------2---3------------|----------------------------------|
|*3-------3------------------------|-0-------0-----------0---3---0----|
||---------------------------------|----------------------------------|

| | | | | | | |
|----------------------------------|----------------------------------|
|----------------------------------|----------------------------------|
|----------------------------------|-------------------------0--------|
|-1-------1-------1----------------|-3---3---------------3------------|

| | | | | | | |
||------------------------0--------|---------------------------------||
|*----------------2---3------------|---------------------------------||
|*3-------3---3--------------------|-0-------0-----------0---3---0---||
||---------------------------------|---------------------------------||

>1| | | | | | | |
|----------------------------------|---------------------------------||
|----------------------------------|---------------------------------*|
|----------------------------------|-------------------------0-------*|
|-1-------1-------------------3----|-3---3-------3-------3-----------||

>2| | | | | | | |
|----------------------------------|----------------------------------|
|----------------------------------|----------------------------------|
|----------------------------------|----------------------------------|
|-1-------1-------------------1----|-3-----------3-----------3--------|

| | | | | | | |
|----------------------------------|----------------------------------|
|----------------------------------|----------------------------------|
|-0--------------------------------|----------------------------------|
|----------------------------------|----------------------------------|

| | | | | | | |
|----------------------------------|----------------------------------|
|----------------------------------|----------------------------------|
|----------------------------------|-------------------------0---2----|
|----------------------------------|---------------------3------------|

| | | | | | | |
|----------------------------------||---------------------------------|
|----------------------------------|*---------------------------------|
|----------------------------------|*0---0-------0---0----------------|
|----------------------------------||---------------------------------|

| | | | | | | |
|----------------------------------|----------------------------------|
|----------------------------------|----------------------------------|
|-0---0-------0---0----------------|----------------------------------|
|----------------------------------|-3---3-------3---3----------------|

>3| | | | | | | |
|---------------------------------||----------------------------------|
|---------------------------------*|----------------------------------|
|---------------------------------*|----------------------------------|
|-3---3-------3---3---------------||-1--------------------------------|

| | | | | | | |
|----------------------------------|----------------------------------|
|----------------------------------|----------------------------------|
|----------------------------------|----------------------------------|
|----------------------------------|-3--------------------------------|

| | | | | | | |
|----------------------------------|----------------------------------|
|----------------------------------|----------------------------------|
|-------------------------0---2----|----------------------------------|
|---------------------3------------|----------------------------------|

| | | | | | | |
|----------------------------------|----------------------------------|
|----------------------------------|----------------------------------|
|-0--------------------------------|----------------------------------|
|----------------------------------|----------------------------------|



Get this song at amazon.com      Ebay     Ringtones Ringtones  


Learn to play: Songwriting, Piano, Harmonica, Guitar
More Led Zeppelin lyrics available at Muzikum

Related Led Zeppelin Bass Tabs

The Ocean-perfect bass
I Can't Quit You Baby bass
Stairway To Heaven Intro On 6 String bass
Black Dog bass
Since I've Been Loving You bass
Achelles Last Stand bass
In My Time Of Dying bass
Sick Again bass
I Cant Quit You Baby bass
Achillies Last Stand bass
Hots On For Nowhere bass
Royal Orleans bass
Darlene bass
Lemon Song (main Riff) bass
Kashmire bass
The Ocean (complete) bass
South Bound Suarez bass
Rock And Roll Correct Version bass
All My Love bass
Stair Way To Heaven (out Of The Golden Book) bass


Guitar Tabs









All tabs are property and copyright of their owners. All tabs provided for educational purposes only. Privacy Policy, DMCA

Online converter - videoconverter.com