Led Zeppelin

Down By The Seaside Bass Tabs



More from Led Zeppelin

Led Zeppelin Tabs
Led Zeppelin Chords
Led Zeppelin Bass
Led Zeppelin Lyrics




Standard Tuning

G|------------------------|------------------------|------------------------|
D|------------------------|3-----------------------|5-----------------------|
A|------------------------|------------------------|------------------------|
E|------------------------|------------------------|------------------------|

G|------------------------|------------------------|------------------------|
D|3-----------------------|3-----------------------|3-----------------------|
A|------------------------|------3-----------------|------------------------|
E|------------------------|------------------------|------------------------|

G|------------------------|------------------------||------------------------|
D|5-----------------------|3-----------------------||3-----------------------|
A|------------------------|------------------------||------3-----------------|
E|------------------------|------------------------||------------------------|
Down by_______ the

G|------------------------|------------------------|----------------------5-|
D|3---------------------5-|------------------------|3-----------------------|
A|------------------------|3-----------------------|------------------------|
E|------------------------|------------------------|------------------------|
seaside

G|------------------------|------------------------|------------------------|
D|------------------------|3-----------------------|------------------------|
A|3-----------------------|------------------------|3---------------------3-|
E|------------------------|------------------------|------------------------|

G|------------------------|------------------------|------------------------|
D|------3---------3-3-----|----3-3---------3-3-----|------------------------|
A|3-----------------------|------------------------|3-----3-----3-----3-----|
E|------------------------|------------------------|------------------------|

G|------------5-----------|------------------------|------------------------|
D|------------------------|3-----------------------|3-----------------5-----|
A|3-----3-----------3---3-|------------------------|------------------------|
E|------------------------|------------------------|------------------------|

G|--------------5---------|------------------------|------------------------|
D|------------5-----5-----|----------------------2-|3-----------------------|
A|3-----------------------|3---------------3-5-----|----------------------3-|
E|------------------------|------------------------|------------------------|

G|------------------------|------------------------|------------------------|
D|3-----------------2-----|3-----3-----3-----------|------------------------|
A|------3-----5-----------|------------------------|3-----------------------|
E|------------------------|------------------------|------------------------|
People turned away

G|------------------------|------------------------|------------------------||
D|3-----3-----3-----------|------------------------|------------------------||
A|------------------------|3-----------------------|(3)---------------------||
E|------------------------|------------------------|------------------------||
People turned away

G|------------------------|------------------------|------------5-----------|
D|------------------------|3-----------------------|------------------5-----|
A|3-----------------------|------------------------|3-----------------------|
E|------------------------|------------------------|------------------------|

G|------------------------|------------------------|------------------------|
D|3---------------------5-|------------------------|3-----------------------|
A|------------------------|3-----------------------|------------------------|
E|------------------------|------------------------|------------------------|

G|------------------------|------------------------|------------------------|
D|------------------------|------3---------3-3-----|----3-3---------3-3-2---|
A|3-----------------------|3-----------------------|----------------------5-|
E|------------------------|------------------------|------------------------|

G|------------5-----------|------------------------|------------------------|
D|------------------5---5-|------------------2-----|3-----------------------|
A|3-----------------------|



Get this song at amazon.com      Ebay     Ringtones Ringtones  


Learn to play: Songwriting, Piano, Harmonica, Guitar
Also available at Muzikum: Led Zeppelin - Down By The Seaside lyrics

Related Led Zeppelin Bass Tabs

Royal Orleans (complete) bass
Black Dog(100% Correct) bass
Over The Hills And Far Away bass
What Is And What Should Never Be (complete) bass
In The Evening bass
Baby Come On Home bass
Since I've Been Loving You bass
I Cant Quit You Baby bass
Kashmire bass
Stairway To Heaven Intro bass
Four Sticks bass
The Ocean bass
Lemon Song bass
No Quarter bass
Thank You bass
Dryer Maker bass
Out On The Tiles bass
Misty Mountain Hop bass
Babe, I'm Gonna Leave You bass
Carouselambra bass


Guitar Tabs









All tabs are property and copyright of their owners. All tabs provided for educational purposes only. Privacy Policy, DMCA