Led Zeppelin

Dazed & Confused Bass Tabs



More from Led Zeppelin

Led Zeppelin Tabs
Led Zeppelin Chords
Led Zeppelin Bass
Led Zeppelin Lyrics




Intro/Verse
------------------------------|------------------------------|
------------------------------|------------------------------|
---10--9--8--7----5--4--3--2--|---10--9--8--7----5--4--3--2--|
-0--------------0-------------|-0--------------0-------------|

------------------------------|
------------------------------|
---10--9--8--7----5--4--3--2--|
-0--------------0-------------|


violin Bow solo:
------------------------------|
-----------------------0------|
--2-2-2-2-0----2-2-2-2--------|x 14
------------------------------|


Guitar Solo 14x
--------------------------------|--------------------------------|
--------5-7-5------------5-7-5--|--------5-7-5------------5-7-5--|
-----5-7--------------5-7-------|-----5-7--------------5-7-------|
--5-7--------------5-7----------|--5-7--------------5-7----------|



bridge:
------------2-4---------------|------------2-4---------------|
--------2-4-----2-4-----------|--------2-4-----2-4-----------|
-2-2-2------------------------|-2-2-2------------------------|
------------------------------|------------------------------|

------------2-4---------------|------------2-4---------------|
--------2-4-----2-4-----------|--------2-4-----2-4-----------|
-2-2-2------------------------|-2-2-2------------------------|
------------------------------|------------------------------|

Outro:
---------------------------|
---------------------------|
---2-2-2-2-2--2-2-2-2-2----| x 21
---------------------------|



Get this song at amazon.com      Ebay     Ringtones Ringtones  


Learn to play: Songwriting, Piano, Harmonica, Guitar
More Led Zeppelin lyrics available at Muzikum

Related Led Zeppelin Bass Tabs

How Many More Times Intro bass
Ramble On bass
Stairway To Heaven Intro bass
Babe Im Gonna Leave You bass
The Ocean (complete) bass
Out On The Tiles (complete) bass
Lemon Song (main Riff) bass
All My Love bass
Lemon Song bass
The Ocean bass
Trampled Under Foot bass
Kashmir bass
Hey Hey What Can I Do bass
Heart Breaker bass
Black Dog Correct bass
Stairway To Heaven bass
In The Light bass
Walters Walk bass
Moby Dick (%100 Perfect I Promise) bass
How Many More Times bass


Guitar Tabs









All tabs are property and copyright of their owners. All tabs provided for educational purposes only. Privacy Policy, DMCA