Led Zeppelin

Dazed And Confuzed Bass Tabs



More from Led Zeppelin

Led Zeppelin Tabs
Led Zeppelin Chords
Led Zeppelin Bass
Led Zeppelin Lyrics




Intro:
G|------------------------------|------------------------------|
D|------------------------------|------------------------------|
A|---10--9--8--7----5--4--3--2--|---10--9--8--7----5--4--3--2--|
E|-0--------------0-------------|-0--------------0-------------|

G|------------------------------|
D|------------------------------|
A|---10--9--8--7----5--4--3--2--|
E|-0--------------0-------------|

Verse 1:
G|------------------------------|------------------------------|
D|------------------------------|------------------------------|
A|---10--9--8--7----5--4--3--2--|---10--9--8--7----5--4--3--2--|
E|-0--------------0-------------|-0--------------0-------------|
Been dazed and confused for so long, it's not true...

G|------------------------------|
D|------------------------------|
A|---10--9--8--7----5--4--3--2--|
E|-0--------------0-------------|

Pre-Verse 1:
G|------------------------------|------------------------------|
D|------------------------------|------------------------------|
A|---10--9--8--7----5--4--3--2--|---10--9--8--7----5--4--3--2--|
E|-0--------------0-------------|-0--------------0-------------|

G|------------------------------|
D|------------------------------|
A|---10--9--8--7----5--4--3--2--|
E|-0--------------0-------------|

Verse 2:
G|------------------------------|------------------------------|
D|------------------------------|------------------------------|
A|---10--9--8--7----5--4--3--2--|---10--9--8--7----5--4--3--2--|
E|-0--------------0-------------|-0--------------0-------------|
You hurt and abuse, tellin' all of your lies...

G|------------------------------|
D|------------------------------|
A|---10--9--8--7----5--4--3--2--|
E|-0--------------0-------------|

Pre-Verse 2:
G|------------2-4---------------|------------2-4---------------|
D|--------2-4-----2-4-----------|--------2-4-----2-4-----------|
A|-2-2-2------------------------|-2-2-2------------------------|
E|------------------------------|------------------------------|

G|------------2-4---------------|------------2-4---------------|
D|--------2-4-----2-4-----------|--------2-4-----2-4-----------|
A|-2-2-2------------------------|-2-2-2------------------------|
E|------------------------------|------------------------------|

Pre-Verse 1:
G|------------------------------|------------------------------|
D|------------------------------|------------------------------|
A|---10--9--8--7----5--4--3--2--|---10--9--8--7----5--4--3--2--|
E|-0--------------0-------------|-0--------------0-------------|

G|------------------------------|
D|------------------------------|
A|---10--9--8--7----5--4--3--2--|
E|-0--------------0-------------|

Verse 3:
G|------------------------------|------------------------------|
D|------------------------------|------------------------------|
A|---10--9--8--7----5--4--3--2--|---10--9--8--7----5--4--3--2--|
E|-0--------------0-------------|-0--------------0-------------|
Every day I work so hard, bringin' home my hard-earned pay

G|------------------------------|
D|------------------------------|
A|---10--9--8--7----5--4--3--2--|
E|-0--------------0-------------|

Pre-Verse 2:
G|------------2-4---------------|------------2-4---------------|
D|--------2-4-----2-4-----------|--------2-4-----2-4-----------|
A|-2-2-2------------------------|-2-2-2------------------------|
E|------------------------------|------------------------------|

G|------------2-4---------------|------------2-4---------------|
D|--------2-4-----2-4-----------|--------2-4-----2-4-----------|
A|-2-2-2------------------------|-2-2-2------------------------|
E|------------------------------|------------------------------|

Violin Bow solo:
G|------------------------------|------------------------------|
D|-----------------------0------|-----------------------0------|
A|--2-2-2-2-0----2-2-2-2--------|--2-2-2-2-0----2-2-2-2--------|
E|------------------------------|------------------------------|

G|------------------------------|------------------------------|
D|-----------------------0------|-----------------------0------|
A|--2-2-2-2-0----2-2-2-2--------|--2-2-2-2-0----2-2-2-2--------|
E|------------------------------|------------------------------|

G|------------------------------|------------------------------|
D|-----------------------0------|-----------------------0------|
A|--2-2-2-2-0----2-2-2-2--------|--2-2-2-2-0----2-2-2-2--------|
E|------------------------------|------------------------------|

G|------------------------------|------------------------------|
D|-----------------------0------|-----------------------0------|
A|--2-2-2-2-0----2-2-2-2--------|--2-2-2-2-0----2-2-2-2--------|
E|------------------------------|------------------------------|

G|------------------------------|------------------------------|
D|-----------------------0------|-----------------------0------|
A|--2-2-2-2-0----2-2-2-2--------|--2-2-2-2-0----2-2-2-2--------|
E|------------------------------|------------------------------|

G|------------------------------|------------------------------|
D|-----------------------0------|-----------------------0------|
A|--2-2-2-2-0----2-2-2-2--------|--2-2-2-2-0----2-2-2-2--------|
E|------------------------------|------------------------------|

G|------------------------------|------------------------------|
D|-----------------------0------|-----------------------0------|
A|--2-2-2-2-0----2-2-2-2--------|--2-2-2-2-0----2-2-2-2--------|
E|------------------------------|------------------------------|

Guitar Solo (14x):
E|--------------------------------|----------------------------------|
D|--------5-7-5------------5-7-5--|--------5-7-5------------5-7-5----|
A|-----5-7------7--------5-7------|-----5-7--------------5-7------7--|
E|--5-7---------------5-7---------|---5-7--------------5-7-----------|

Pre-Verse 2:
G|------------2-4---------------|------------2-4---------------|
D|--------2-4-----2-4-----------|--------2-4-----2-4-----------|
A|-2-2-2------------------------|-2-2-2------------------------|
E|------------------------------|------------------------------|

G|------------2-4---------------|------------2-4---------------|
D|--------2-4-----2-4-----------|--------2-4-----2-4-----------|
A|-2-2-2------------------------|-2-2-2------------------------|
E|------------------------------|------------------------------|

Pre-Verse 1:
G|------------------------------|------------------------------|
D|------------------------------|------------------------------|
A|---10--9--8--7----5--4--3--2--|---10--9--8--7----5--4--3--2--|
E|-0--------------0-------------|-0--------------0-------------|

G|------------------------------|
D|------------------------------|
A|---10--9--8--7----5--4--3--2--|
E|-0--------------0-------------|
Been dazed and confused for so long, it's not true...

Verse 4:
G|------------------------------|------------------------------|
D|------------------------------|------------------------------|
A|---10--9--8--7----5--4--3--2--|---10--9--8--7----5--4--3--2--|
E|-0--------------0-------------|-0--------------0-------------|

G|------------------------------|
D|------------------------------|
A|---10--9--8--7----5--4--3--2--|
E|-0--------------0-------------|

Pre-Verse 2:
G|------------2-4---------------|------------2-4---------------|
D|--------2-4-----2-4-----------|--------2-4-----2-4-----------|
A|-2-2-2------------------------|-2-2-2------------------------|
E|------------------------------|------------------------------|

G|------------2-4---------------|------------2-4---------------|
D|--------2-4-----2-4-----------|--------2-4-----2-4-----------|
A|-2-2-2------------------------|-2-2-2------------------------|
E|------------------------------|------------------------------|

Outro:
G|---------------------------|---------------------------|
D|---------------------------|---------------------------|
A|---2-2-2-2-2--2-2-2-2-2----|---2-2-2-2-2--2-2-2-2-2----|
E|---------------------------|---------------------------|

G|---------------------------|---------------------------|
D|---------------------------|---------------------------|
A|---2-2-2-2-2--2-2-2-2-2----|---2-2-2-2-2--2-2-2-2-2----|
E|---------------------------|---------------------------|

G|---------------------------|---------------------------|
D|---------------------------|---------------------------|
A|---2-2-2-2-2--2-2-2-2-2----|---2-2-2-2-2--2-2-2-2-2----|
E|---------------------------|---------------------------|

G|---------------------------|---------------------------|
D|---------------------------|---------------------------|
A|---2-2-2-2-2--2-2-2-2-2----|---2-2-2-2-2--2-2-2-2-2----|
E|---------------------------|---------------------------|

G|---------------------------|---------------------------|
D|---------------------------|---------------------------|
A|---2-2-2-2-2--2-2-2-2-2----|---2-2-2-2-2--2-2-2-2-2----|
E|---------------------------|---------------------------|

G|---------------------------|---------------------------|
D|---------------------------|---------------------------|
A|---2-2-2-2-2--2-2-2-2-2----|---2-2-2-2-2--2-2-2-2-2----|
E|---------------------------|---------------------------|

G|---------------------------|---------------------------|
D|---------------------------|---------------------------|
A|---2-2-2-2-2--2-2-2-2-2----|---2-2-2-2-2--2-2-2-2-2----|
E|---------------------------|---------------------------|

G|---------------------------|---------------------------|
D|---------------------------|---------------------------|
A|---2-2-2-2-2--2-2-2-2-2----|---2-2-2-2-2--2-2-2-2-2----|
E|---------------------------|---------------------------|

G|---------------------------|---------------------------|
D|---------------------------|---------------------------|
A|---2-2-2-2-2--2-2-2-2-2----|---2-2-2-2-2--2-2-2-2-2----|
E|---------------------------|---------------------------|

G|---------------------------|---------------------------|
D|---------------------------|---------------------------|
A|---2-2-2-2-2--2-2-2-2-2----|---2-2-2-2-2--2-2-2-2-2----|
E|---------------------------|---------------------------|

G|---------------------------|----------------------------|
D|---------------------------|----------------------------|
A|---2-2-2-2-2--2-2-2-2-2----|---2-2-2-2-2--2-2-2-2-2-2---|
E|---------------------------|----------------------------|



Get this song at amazon.com      Ebay     Ringtones Ringtones  


Learn to play: Songwriting, Piano, Harmonica, Guitar
Also available at Muzikum: Led Zeppelin - Dazed And Confuzed lyrics

Related Led Zeppelin Bass Tabs

The Wanton Song bass
Kashmir bass
Four Sticks bass
Stairway To Heaven bass
Rock And Roll(studio Version) bass
The Girl I Love She Got Long Black Wavu Hair bass
Lemon Song Bass Solo bass
Communitcation Breakdown bass
The Girl I Love She Got Long Black Wavy Hair bass
Black Dog Bass Tab bass
All My Love bass
How Many More Times bass
What Is And What Should Never Be bass
The Ocean bass
Carouselambra bass
We're Gonna Groove bass
The Wanton Song (complete) bass
Achilles Last Stand bass
Darlene bass
Im Gonna Crawl bass


Guitar Tabs









All tabs are property and copyright of their owners. All tabs provided for educational purposes only. Privacy Policy, DMCA