Led Zeppelin

Dazed And Confused (correct) Bass Tabs



More from Led Zeppelin

Led Zeppelin Tabs
Led Zeppelin Chords
Led Zeppelin Bass
Led Zeppelin Lyrics




Verse
G|-----------------------------|
D|-----------------------------|
A|--10--9--8--7/---5--4--3^^2--|
E|0--------------0-------------|

Bridge
G|----------2h4---|
D|-------2h4---2h4|
A|-2-2-2----------|
E|----------------|

Violin Bow Guitar Solo
G|-----------------------|
D|---------------------0-|
A|2-2-2-2-0----2-2-2-2---|
E|-----------------------|

Guitar Solo
G|------5h7---------5h75|
D|---5h7---5h7---5h7----|
A|5h7---------5h7-------|
E|----------------------|



Get this song at amazon.com      Ebay     Ringtones Ringtones  


Learn to play: Songwriting, Piano, Harmonica, Guitar
More Led Zeppelin lyrics available at Muzikum

Related Led Zeppelin Bass Tabs

I Can't Quit You Baby bass
Immigration Song bass
Black Dog Bass Tab bass
The Girl I Love She Got Long Black Wavy Hair bass
Poor Tom bass
The Ocean (100% Correct) bass
Heartbreaker bass
Bron Y Aur Stomp bass
Dyer Maker bass
Black Country Woman bass
Achillies Last Stand bass
Living Loving Maid bass
Ocean (perfect Riff) bass
Rock And Roll Correct Version bass
Walters Walk bass
Down By The Seaside bass
Crunge bass
Babe, Im Going To Leave You bass
Stairway To Heaven( Out Of Book, Perfect No Questions Asked) bass
In The Evening bass


Guitar Tabs









All tabs are property and copyright of their owners. All tabs provided for educational purposes only. Privacy Policy, DMCA