Led Zeppelin

Dazed And Confused Solo Tabs



More from Led Zeppelin

Led Zeppelin Tabs
Led Zeppelin Chords
Led Zeppelin Bass
Led Zeppelin Lyrics

Tabbed by ZososoZ

This is the Dazed and Confused Solo from the movie, the song remains the same.
"DO-IT" LEAD

Rhythm:
w = whole note W = dotted whole
h = half note H = dotted half
q = quarter note Q = dotted quarter
e = eighth note E = dotted eighth
s = sixteenth note S = dotted sixteenth
t = 32nd note T = dotted 32nd
x = 64th note X = dotted 64th
^ = triplet


s s s s e s s s s s s s s s s s s s s
E---||-----------r--r--------------------------------|-----------r------
B---||-----------e--e--------------------------------|-----------e------
G---||-----------s--s--------------------------------|-----------s------
D---||-----------t--t--------------------------------|-----------t------
A---||-----------------------------------------------|------------------
E---||--3--3--3--------3--3--3--3--3--3--3--3--3--3--|--3--3--3---------


q h s s s s e s s s s s s s s s s s s s
E---r--r--|-----------r--r--------------------------------|--3--3--3----
B---e--e--|-----------e--e--------------------------------|--6--6--6----
G---s--s--|-----------s--s--------------------------------|--4--4--4----
D---t--t--|-----------t--t--------------------------------|--3--3--3----
A---------|-----------------------------------------------|--5--5--5----
E---------|--3--3--3--------3--3--3--3--3--3--3--3--3--3--|--3--3--3----


s q h E E E E Q E E E E e e e e q e e
E---r--r--r--|-----------------|--------------------|--------0----------
B---e--e--e--|-----------------|--------------------|--------8----------
G---s--s--s--|-----------------|--------------------|--------7----------
D---t--t--t--|--5--4--3--4--5--|--7--6--5--6--7--5--|--------6----------
A------------|-----------------|--------------------|--------7----------
E------------|-----------------|--------------------|--0--0-----0--0----


q e e q e e q s s s s s s s s s s s s
E---0--|--------0--------0--|-------------------------------------------
B---8--|--------8--------8--|-------------------------------------------
G---7--|--------7--------7--|--------------------------------7--9-------
D---6--|--------6--------6--|--------------------5--7--7--9-------------
A---7--|--------7--------7--|-----------5--5--7-------------------------
E------|--0--0-----0--0-----|--3--5--7----------------------------------


s s e e e q s s e s s s s s
E---------------|-------------------------------------------|-----------
B-----------12--|^--17--15--12------12----------------------|-----------
G---12--14------|---------------14------12------------------|-----------
D---------------|---------------------------14--12--14--12--|-----------
A---------------|-------------------------------------------|--14-------
E---------------|-------------------------------------------|-----------


s s s s s s s s s s s s s s s e
E---------------------------------------------------------------|-------
B---------------------------------------------------------------|-------
G---------------------------------------------------------------|-------
D---14--12------12--14--12------12------------------------------|-------
A-----------14--------------14------14--12--10--12--10------10--|/14----
E-------------------------------------------------------12------|-------


s s s s s s s s s s s s s s e e
E---------------------------r----------r--------------r--|--------------
B---------------------------e----------e--------------e--|-----15-------
G-------------------12--14--s--12--14--s--12--14--12--s--|/16-----------
D---12--12--12--14----------t----------t--------------t--|--------------
A--------------------------------------------------------|--------------
E--------------------------------------------------------|--------------


e E q e e q q e e e s s s s
E-----^--19--17------|----^--19--17--15--17--15--|--15--16--17--15------
B---17---------------|--15-----------------------|----------------------
G----------------16--|---------------------------|----------------------
D--------------------|---------------------------|----------------------
A--------------------|---------------------------|----------------------
E--------------------|---------------------------|----------------------


s s s q s s s s s s s s s s s s s
E---16----------r---------r------------------|------12------r-----------
B-------17--15--e--17p14--e--14--12----------|----------15--e--15p12----
G---------------s---------s----------14--12--|--13----------s-----------
D---------------t---------t------------------|--------------t-----------
A--------------------------------------------|--------------------------
E--------------------------------------------|--------------------------


s s s s s s e e s s s s s s s s
E-----------r----------------------|------------------------------------
B-----------e----------------------|------------------------------------
G---14--12--s--14--12--14--12------|--14--14--12h14p12------14----------
D-----------t------------------14--|--------------------14------14------
A----------------------------------|------------------------------------
E----------------------------------|------------------------------------


s s s s s s e e e e E s s s s s
E-----------------------------|----------12--15-------------------------
B-----------------------------|------15---------------------------------
G---12h14p12------14------12--|--16--------------14--12------14---------
D-------------14------14------|--------------------------14------14-----
A-----------------------------|-----------------------------------------
E-----------------------------|-----------------------------------------


s s e e q s s s s s s s s e e
E-----------|----------r--r------------------------------|--------------
B-----------|----------e--e------------------------------|--------------
G---12--14--|--12------s--s--14--12------14------12--14--|--12----------
D-----------|------14--t--t----------14------14----------|------14------
A-----------|--------------------------------------------|--------------
E-----------|--------------------------------------------|--------------


q s s s s s s s s e e q s s s s
E---r--r------------------------------|----------r--r-------------------
B---e--e------------------------------|----------e--e-------------------
G---s--s--14--12------14------12--14--|--12------s--s--14--12-----------
D---t--t----------14------14----------|------14--t--t----------14-------
A-------------------------------------|---------------------------------
E-------------------------------------|---------------------------------


s s s s e e e E s s s s s e e
E-------------------|----------------------------------------|----------
B-------------------|----------------------------------------|----------
G---14------12--14--|--12------------------------------------|----------
D-------14----------|------14--12--14--12h14--12h14--12------|----------
A-------------------|------------------------------------14--|--10------
E-------------------|----------------------------------------|----------


e e E s s s s s s s e s s s s s
E-----------------------------------------|-----------------------------
B-----------------------------------------|-----------------------------
G-----------------------------------------|---------------------12------
D-----------------------------------------|-----12--12--12--14----------
A-------10--12--10h12--10h12--10------10--|/14--------------------------
E---12----------------------------12------|-----------------------------


s s s s s e s s t t s s s t t s s
E-------r----------r-------------|---------15------15---------15--------
B-------e----------e---------15--|--15h17------17------15h17------17----
G---14--s--12--14--s--12/16------|--------------------------------------
D-------t----------t-------------|--------------------------------------
A--------------------------------|--------------------------------------
E--------------------------------|--------------------------------------


s t t s s s t t s s s e q e s s
E---15---------15------15---------15------15--|----^--19--17--15--16----
B-------15h17------17------15h17------17------|--15---------------------
G---------------------------------------------|-------------------------
D---------------------------------------------|-------------------------
A---------------------------------------------|-------------------------
E---------------------------------------------|-------------------------


s s s s s s s s s s s s s s s s
E---17--15--16----------r--|--r---------r----------------------12-------
B---------------17--15--e--|--e--17p14--e--14--12-----------------------
G-----------------------s--|--s---------s----------14--12--13-----------
D-----------------------t--|--t---------t-------------------------------
A--------------------------|--------------------------------------------
E--------------------------|--------------------------------------------


s s e s s s s s s s s s s s s
E-----------------------|-----------------------------------------------
B---15p12---------------|-----------------------------------------------
G--------^--16--14--12--|------14--12------12--14--12------12-----------
D-----------------------|--14----------14--------------14------14-------
A-----------------------|-----------------------------------------------
E-----------------------|-----------------------------------------------


s s s s s s
E--------------------------||-------------------------------------------
B--------------------------||-------------------------------------------
G--------------------------||-------------------------------------------
D---12------14------12h14--||-------------------------------------------
A-------14------14---------||-------------------------------------------
E--------------------------||-------------------------------------------




========================================================================
== TABLATURE EXPLANATION ==
========================================================================

---------- ---------- ----t---
----5h8--- Hammeron ----(8)--- Ghost ----6--- Tap
---------- ---------- Note --------
----5p8--- Pulloff ---------- --------

---------- ---------- -----p--
----5/8--- Slide Up -----x---- Dead -----7-- Pop
---------- ---------- Note --s-----
----58--- Slide Down ---------- --5----- Slap

---------- ||------|| Repeat --------
----5~~~-- Vibrato ||*----*|| ---5^--- Bend
---------- ||*----*|| --------
---------- ||------|| --------

---------- ---------- --------
-4:------- Time ---------- --------
-4:------- Signature ---------- --------
---------- ---------- --------



Get this song at amazon.com      Ebay     Ringtones Ringtones  


Learn to play: Songwriting, Piano, Harmonica, Guitar
Also available at Muzikum: Led Zeppelin - Dazed And Confused (solo) lyrics

Related Led Zeppelin Tabs

Over The Hills And Far Away tabs
Led Zeppelin 4 Album tabs
How Many More Times tabs
Dazed And Confused tabs
Bron Y Aur Stomp2 tabs
Kashmir tabs
Rock N Roll tabs
Moby Dick tabs
Darlene Bass tabs
Songremains tabs
White Summer/black Mountainside tabs
Houses Of The Holy tabs
Black Dog tabs
Physical Graffiti tabs
White Summer/black Mountain Side tabs
How Many More Times Bass tabs
Some Phs Graff Pres tabs
Stairway To Heavin tabs
Thank You tabs
Lets Have A Party tabs


Guitar Tabs









All tabs are property and copyright of their owners. All tabs provided for educational purposes only. Privacy Policy, DMCA