Led Zeppelin

Dazed And Confused Note For Note Bass Tabs



More from Led Zeppelin

Led Zeppelin Tabs
Led Zeppelin Chords
Led Zeppelin Bass
Led Zeppelin Lyrics




Intro/Verse
------------------------------|------------------------------|
------------------------------|------------------------------|
---10--9--8--7----5--4--3--2--|---10--9--8--7----5--4--3--2--|
-0--------------0-------------|-0--------------0-------------|

------------------------------|
------------------------------|
---10--9--8--7----5--4--3--2--|
-0--------------0-------------|


solo:
------------------------------|
---------------7-7-7-7-4------|
--4-4-4-4-7-------------------|x 14
------------------------------|


Guitar Solo 14x
--------0-2--------------0-2----|--------0-2--------------0-2----|
-----0-2---0----------0-2----0--|-----0-2---0----------0-2----0--|
--0-2--------------0-2----------|--0-2--------------0-2----------|
--------------------------------|--------------------------------|



bridge:
------------------------------|------------------------------|
------------------------------|------------------------------|
-2-2-2------0-2---------------|-2-2-2------0-2---------------|
--------0-2-----0-2-----------|--------0-2-----0-2-----------|

------------2-4---------------|------------2-4---------------|
--------2-4-----2-4-----------|--------2-4-----2-4-----------|
-2-2-2------------------------|-2-2-2------------------------|
------------------------------|------------------------------| x?



Get this song at amazon.com      Ebay     Ringtones Ringtones  


Learn to play: Songwriting, Piano, Harmonica, Guitar
More Led Zeppelin lyrics available at Muzikum

Related Led Zeppelin Bass Tabs

Thats The Way bass
Trampled Under Foot bass
Black Dog (tabbed From Notes) bass
Celebration Day bass
Kashmir bass
The Ocean-perfect bass
Communitcation Breakdown bass
Black Country Woman bass
Dazed And Confused (correct) bass
Rock N Roll bass
Immigrant Song bass
The Ocean (complete) bass
What Is And What Should Never Be bass
In My Time Of Dying bass
Archilles Last Stand (fixed) bass
Dazed And Confused bass
Over The Hills And Far Away bass
Gallows Pole 99 9% Correct bass
Heart Breaker bass
Misty Mountain Hop bass


Guitar Tabs









All tabs are property and copyright of their owners. All tabs provided for educational purposes only. Privacy Policy, DMCA