Led Zeppelin

Dancing Days Bass Tabs



More from Led Zeppelin

Led Zeppelin Tabs
Led Zeppelin Chords
Led Zeppelin Bass
Led Zeppelin Lyrics



G|----------------|----------------|------------4---|----------------|
D|----------------|----------------|----------------|----------------|
A|------------1---|------------1---|----------------|------------1---| X2
E|----------3---3-|----------3---3-|----------0---3-|----------3---3-|

G|----------------|----------------|----------------|----------------|
D|----------------|----------------|----------------|----------------|
A|--3-----3-3---4-|--4-----4-4---3-|--3-----3-3---3-|--3-----------3-|
E|----------------|----------------|----------------|--------3-3-----|
Dancing days are here again....
You told your mama I'd get you home....

G|----------------|----------------|----------------|----------------|
D|----------------|----------------|----------------|----------------|
A|--3-----3-3---4-|--4-----4-4---3-|--3-----3-3-3-3-|--3-3---3-3---3-|
E|----------------|----------------|----------------|------3-----5---|

G|----------------|----------------|----------------|----------------|
D|----------------|----------------|----------------|----------------|
A|--3-----3-3---1-|--1-----1-1---0-|--0-----0-0---0-|--0-0-0-0-----3-|
E|----------------|----------------|----------------|----------3-----|

G|----------------|----------------|----------------|----------------|
D|----------------|----------------|----------------|----------------|
A|--3-----3-3---1-|--1-----1-1---0-|--0-----0-0---0-|----0---------3-|
E|----------------|----------------|----------------|--3-------3-----|

G|----------------|----------------|----------------|----------------|
D|----------------|----------------|----------------|----------------|
A|--3-----3-3---4-|--4-----4-4---3-|--3-----3-3---3-|--3-3-3-3-----3-|
E|----------------|----------------|----------------|----------3-5---|

G|----------------|----------------|----------------|----------------|
D|----------------|----------------|----------------|----------------|
A|--------3-3---1-|--------1-1-1-0-|--0-----0-1---0-|------0-----0-3-|
E|----------------|----------------|------------3---|----3-----3-----|
__________________
|1.
G|----------------|----------------|----------------|---------------- |
D|----------------|----------------|----------------|----------------o|
A|--3-----3---3-1-|--1-----1-3---0-|--------0---0-0-|----0-----0-----o|
E|----------3-----|----------------|----------0-----|--0-----------3- |
__________________
|2.
G|----------------|----------------|----------------|----------------|
D|----------------|----------------|----------------|----------------|
A|--0-0-----0-----|------------1---|------------1---|----------------|
E|--------------3-|----------3---3-|----------3---3-|----------0---3-|

G|----------------|----------------|----------------|----------------|
D|----------------|----------------|----------------|----------------|
A|------------1---|------------1---|------------1---|----------------|
E|----------3---3-|----------3---3-|----------3---3-|----------0---3-|

G|----------------|----------------|----------------|----------------|
D|----------------|----------------|--------------1-|--1-1-1---1---1-|
A|------------1-3-|--3-3---3-3-3-4-|--4---4---4-----|----------------|
E|----------3-----|----------------|----------------|----------------|

G|----------------|----------------|----------------|----------------|
D|--1-1-1-1-1-1-1-|--1-1-1-1-1-1-3-|--3-3-3-3-3-3---|----------------|
A|----------------|----------------|----------------|------------1---|
E|----------------|----------------|--------------3-|----------3---3-|

G|----------------|----------------|----------------|----------------|
D|----------------|----------2-----|----------------|----------------|
A|------------1---|----------------|------------1---|------------1---| X2
E|--3-------3---3-|--3-----------3-|--3-------3---3-|--3-------3---3-|

G|----------------|----------------|----------------|----------------|
D|----------------|----------4-2---|----------------|----------------|
A|------------1---|----------------|----------1-1---|----------------|
E|--3-------3---3-|--3-----------3-|--3-----------3-|----------------|



Get this song at amazon.com      Ebay     Ringtones Ringtones  


Learn to play: Songwriting, Piano, Harmonica, Guitar
Also available at Muzikum: Led Zeppelin - Dancing Days lyrics

Related Led Zeppelin Bass Tabs

Whole Lotta Of Love bass
In The Light 4 String bass
Custard Pie bass
The Song Remains The Same bass
The Crunge bass
Trampled Under Foot bass
Royal Orleans bass
Crunge bass
The Girl I Love She Got Long Black Wavy Hair bass
Travelling Riverside Blues bass
The Ocean (complete) bass
Heart Breaker bass
Darlene bass
Ocean (perfect Riff) bass
The Ocean bass
Stairway To Heaven bass
Rock And Roll Correct Version bass
No Quarter bass
I Cant Quit You Baby bass
Im Gonna Crawl bass


Guitar Tabs









All tabs are property and copyright of their owners. All tabs provided for educational purposes only. Privacy Policy, DMCA