Led Zeppelin

Dancin Days Bass Tabs



More from Led Zeppelin

Led Zeppelin Tabs
Led Zeppelin Chords
Led Zeppelin Bass
Led Zeppelin Lyrics



Led Zeppelin - Dancin' Days
From the album Houses Of The Holy
Tabbed by Joe Weldinger
jweldinger@donet.com


H e e H e e H q H e e H e e H e e
G---|------------------------|-----------------|------------------------
D---|--8:--------------------|-----------------|------------------------
A---|--4:--------1--------1--|--------------1--|--------1--------1------
E---|------3--3-----3--3-----|--3--0--3--3-----|--3--3-----3--3---------


H q H e e q h e e q h e e q h e e q
G---|-----------------||---------------------------|--------------------
D---|-----------------||*--------------------------|--------------------
A---|--------------1--||*--3--3-----3--4--4-----1--|--3--3-----1--3-----
E---|--3--0--3--3-----||---------3-----------3-----|--------3-----------


h e e q h e e q h e e q h e e q h e e
G------------|--------------------------|--------------------------|----
D------------|--------------------------|--------------------------|----
A---3-----1--|--3--3-----3--4--4-----1--|--3--3-----1--3--3-----1--|----
E------3-----|--------3-----------3-----|--------3-----------3-----|----


q q q e e q q q e e q q e e e q e e e q e
G---------------------------------|-------------------------------------
D---------------------------------|-------------------------------------
A---3--3--3-----3--1--1--1-----1--|--0--0--0-----0--0-----0-----0-------
E------------3--------------3-----|-----------3--------3-----3-----3----


e q q q e e q q q e e q q e e e q e e e
G------|--------------------------------|-------------------------------
D------|--------------------------------|-------------------------------
A---1--|--3--3--3-----3--1--1--1-----1--|--0--0--0-----0--0-----0-------
E------|-----------3--------------3-----|-----------3--------3-----3----


q e e 2x H e e H e e H q H e e H e e H
G-------------||--------------------|-----------------|-----------------
D------------*||--------------------|-----------------|-----------------
A---0-----1--*||--------1--------1--|--------------1--|--------1--------
E------3------||--3--3-----3--3-----|--3--0--3--3-----|--3--3-----3-----


e e H q H e e q h e e q h e e q h e
G---------|-----------------||---------------------------|--------------
D---------|-----------------||*--------------------------|--------------
A------1--|--------------1--||*--3--3-----3--4--4-----1--|--3--3--------
E---3-----|--3--0--3--3-----||---------3-----------3-----|--------3-----


e q h e e q h e e q h e e q h e e q h e
G------------------|--------------------------|-------------------------
D------------------|--------------------------|-------------------------
A---1--3--3-----1--|--3--3-----3--4--4-----1--|--3--3-----1--3--3-------
E------------3-----|--------3-----------3-----|--------3-----------3----


e q q q e e q q q e e q q e e e q e e e
G------|--------------------------------|-------------------------------
D------|--------------------------------|-------------------------------
A---1--|--3--3--3-----3--1--1--1-----1--|--0--0--0-----0--0-----0-------
E------|-----------3--------------3-----|-----------3--------3-----3----


q e e q q q e e q q q e e q q e e e q e
G------------|--------------------------------|-------------------------
D------------|--------------------------------|-------------------------
A---0-----1--|--3--3--3-----3--1--1--1-----1--|--0--0--0-----0--0-------
E------3-----|-----------3--------------3-----|-----------3--------3----


e e q e e 2x H e e H e e H q H e e H e
G-------------------||--------------------|-----------------|-----------
D------------------*||--------------------|-----------------|-----------
A---0-----0-----1--*||--------1--------1--|--------------1--|-----------
E------3-----3------||--3--3-----3--3-----|--3--0--3--3-----|--3--3-----


e H e e H q H e e q e q e e e q e
G---------------|-----------------|------------------------|------------
D---------------|-----------------|--4:--------------------|------------
A---1--------1--|--------------1--|--4:--3--3--3--3--3--3--|--4--4------
E------3--3-----|--3--0--3--3-----|------------------------|------------


q e e e q e q e e e q e q e e e q e q
G---------------|--------------------|--------------------|-------------
D---------------|--------------------|--------------------|-------------
A---4--4--4--4--|--6--6--6--6--6--6--|--6--6--6--6--6--6--|--6--6--6----
E---------------|--------------------|--------------------|-------------


e e e w H e e H e e H q H e e 3x
G------------|-----||------------|-----------|------------------||------
D------------|-----||*-----------|-----------|-----------------*||------
A---6--6--6--|--8--||*--------1--|--------1--|--------------1--*||------
E------------|-----||---3--3-----|--3--3-----|--3--0--3--3------||------


w
G------||---------------------------------------------------------------
D------||---------------------------------------------------------------
A------||---------------------------------------------------------------
E---3--||---------------------------------------------------------------




========================================================================
== TABLATURE EXPLANATION ==
========================================================================

---------- ---------- ----t---
----5h8--- Hammeron ----(8)--- Ghost ----6--- Tap
---------- ---------- Note --------
----5p8--- Pulloff ---------- --------

---------- ---------- -----p--
----5/8--- Slide Up -----x---- Dead -----7-- Pop
---------- ---------- Note --s-----
----58--- Slide Down ---------- --5----- Slap

---------- ||------|| Repeat --------
----5~~~-- Vibrato ||*----*|| ---5^--- Bend
---------- ||*----*|| --------
---------- ||------|| --------

---------- ---------- --------
-4:------- Time ---------- --------
-4:------- Signature ---------- --------
---------- ---------- --------

Rhythm:
w = whole note W = dotted whole
h = half note H = dotted half
q = quarter note Q = dotted quarter
e = eighth note E = dotted eighth
s = sixteenth note S = dotted sixteenth
t = 32nd note T = dotted 32nd
x = 64th note X = dotted 64th
^ = triplet

========================================================================
== Created with BUCKET O' TAB for Windows ==
== For more info email gse@his.com ==
========================================================================






Get this song at amazon.com      Ebay     Ringtones Ringtones  


Learn to play: Songwriting, Piano, Harmonica, Guitar
Also available at Muzikum: Led Zeppelin - Dancin Days lyrics

Related Led Zeppelin Bass Tabs

Royal Orleans bass
What Is And What Should Never Be (complete) bass
Stair Way To Heaven (correct) bass
Trampeled Underfoot bass
Black Dog bass
Black Dog(100% Correct) bass
Moby Dick (%100 Perfect I Promise) bass
Four Sticks bass
Bron Y Aur Stomp bass
Dazed And Confuzed bass
Immigration Song bass
Darlene bass
The Ocean (complete) bass
Archilles Last Stand (fixed) bass
When The Levee Breaks Standard Tuning bass
Travelling Riverside Blues bass
The Ocean-perfect bass
Bring It On Home- The Whole Song bass
California Girls bass
Celebration Day bass


Guitar Tabs









All tabs are property and copyright of their owners. All tabs provided for educational purposes only. Privacy Policy, DMCA