Led Zeppelin

D'yer Mak'er (complete) Bass Tabs



More from Led Zeppelin

Led Zeppelin Tabs
Led Zeppelin Chords
Led Zeppelin Bass
Led Zeppelin Lyrics




JPJ!

G :----------------|----------------|----------------|----------------|
D :----------------|----------------|----------------|--------2-3-5---|
A :----------------|----------------|----------------|3---3---*-------|
E :----------------|----------------|----------------|----------------|


G :----------------|----------------|----------------|----------------|
D :----------------|----------------|----------------|--------2-3-5---|
A :----------3-0---|----------------|------------0---|3---3-3-*-------|
E :5---5---5-*-----|1---1---1-------|3--3--3---3-----|----------------|


G :----------------|----------------|----------------|----------------|
D :----------------|----------------|----------------|--------2-3-5---|
A :----------3-0---|----------------|------------0---|3---3-3-*-------|
E :5---5---5-*-----|1---1----1------|3-3---3---3-----|----------------|


G :----------------|----------------|----------------|----------------|
D :----------------|----------------|----------------|--------2-3-5---|
A :----------3-0---|----------------|-------------0--|3---3-3-*-------|
E :5---5---5-*-----|1---1----1------|3-3---3---3-----|----------------|


G :----------------|----------------|----------------|----------------|
D :----------------|----------------|----------------|--------2-3-5---|
A :----------3-0---|----------------|-------------0--|3---3-3-*-------|
E :5---5---5-*-----|1---1----1------|3-3---3---3-----|----------------|


G :----------------|----------------|----------------|----------------|
D :----------------|----------------|----------------|--------2-3-5---|
A :----------3-0---|----------------|-------------0--|3---3-3-*-------|
E :5---5---5-*-----|1---1----1------|3-3---3---3-----|----------------|


G :----------------|----------------|----------------|----------------|
D :----------------|----------------|----------------|----------------|
A :----------3-0---|----------------|-------------0--|----------------|
E :5---5---5-*-----|1---1----1------|3-3---3---3-----|----------------|


G :----------------|----------------|----------------|----------------|
D :----------------|----------------|--------2-3-5---|----------------|
A :----------------|----------------|3---3-3-*-------|----------3-0---|
E :----------------|----------------|----------------|5---5---5-*-----|


G :----------------|----------------|----------------|----------------|
D :----------------|----------------|--------2-3-5---|----------------|
A :----------------|-------------0--|3---3-3-*-------|----------3-0---|
E :1---1----1------|3-3---3---3-----|----------------|5---5---5-*-----|


G :----------------|----------------|----------------|----------------|
D :----------------|----------------|--------2-3-5---|----------------|
A :----------------|-------------0--|3---3-3-*-------|----------3-0---|
E :1---1----1------|3-3---3---3-----|----------------|5---5---5-*-----|


G :----------------|----------------|----------------|----------------|
D :----------------|----------------|----------------|----------------|
A :----------------|-------------0--|----------------|----------------|
E :1---1----1------|3-3---3---3-----|----------------|----------------|


G :----------------|----------------|----------------|----------------|
D :----------------|----------------|----------------|----------------|
A :----------------|----------------|----------------|----------------|
E :----------------|5-5-*-5-5-*-----|5-5-*-5-5-*-----|3-3-*-3-3-*-----|


G :----------------|----------------|----------------|----------------|
D :----------------|----------------|----------------|----------------|
A :----------------|----------------|----------------|----------------|
E :3-3-*-3-3-*-----|5-5-*-5-5-*-----|5-5-*-5-5-*-----|3-3-*-3-3-*-----|


G :----------------|----------------|----------------|----------------|
D :----------------|----------------|----------------|----------------|
A :----------------|----------------|----------------|----------------|
E :3-3-*-3-3-*-----|5-5-*-5-5-*-----|5-5-*-5-5-*-----|3-3-*-3-3-*-----|


G :----------------|----------------|----------------|----------------|
D :----------------|----------------|----------------|----------------|
A :----------------|----------------|----------------|----------------|
E :3-3-*-3-3-*-----|----------------|----------------|----------------|


G :----------------|----------------|----------------|----------------|
D :----------------|--------2-3-5---|----------------|----------------|
A :----------------|3---3-3-*-------|----------3-0---|----------------|
E :----------------|----------------|5---5---5-*-----|1---1----1------|


G :----------------|----------------|----------------|----------------|
D :----------------|--------2-3-5---|----------------|----------------|
A :-------------0--|3---3-3-*-------|----------3-0---|----------------|
E :3-3---3---3-----|----------------|5---5---5-*-----|1---1----1------|


G :----------------|----------------|----------------|----------------|
D :----------------|--------2-3-5---|----------------|----------------|
A :-------------0--|3---3-3-*-------|----------3-0---|----------------|
E :3-3---3---3-----|----------------|5---5---5-*-----|1---1----1------|


G :----------------|----------------|----------------|----------------|
D :----------------|----------------|----------------|----------------|
A :-------------0--|----------------|----------------|----------------|
E :3-3---3---3-----|----------------|----------------|----------------|


G :----------------|----------------|----------------|----------------|
D :--------2-3-5---|----------------|----------------|----------------|
A :3---3-3-*-------|----------3-0---|----------------|-------------0--|
E :----------------|5---5---5-*-----|1---1----1------|3-3---3---3-----|


G :----------------|----------------|----------------|----------------|
D :--------2-3-5---|----------------|----------------|----------------|
A :3---3-3-*-------|----------3-0---|----------------|-------------0--|
E :----------------|5---5---5-*-----|1---1----1------|3-3---3---3-----|


G :----------------|----------------|----------------|----------------|
D :--------2-3-5---|----------------|----------------|----------------|
A :3---3-3-*-------|----------3-0---|----------------|-------------0--|
E :----------------|5---5---5-*-----|1---1----1------|3-3---3---3-----|


G :----------------|----------------|----------------|----------------|
D :----------------|----------------|----------------|----------------|
A :----------------|----------------|----------------|----------------|
E :----------------|----------------|----------------|5-5-*-5-5-*-----|


G :----------------|----------------|----------------|----------------|
D :----------------|----------------|----------------|----------------|
A :----------------|----------------|----------------|----------------|
E :5-5-*-5-5-*-----|3-3-*-3-3-*-----|3-3-*-3-3-*-----|5-5-*-5-5-*-----|


G :----------------|----------------|----------------|----------------|
D :----------------|----------------|----------------|----------------|
A :----------------|----------------|----------------|----------------|
E :5-5-*-5-5-*-----|3-3-*-3-3-*-----|3-3-*-3-3-*-----|5-5-*-5-5-*-----|


G :----------------|----------------|----------------|----------------|
D :----------------|----------------|----------------|----------------|
A :----------------|----------------|----------------|----------------|
E :5-5-*-5-5-*-----|3-3-*-3-3-*-----|3-3-*-3-3-*-----|----------------|


G :----------------|----------------|----------------|----------------|
D :----------------|----------------|----------------|--------2-3-5---|
A :----------------|----------------|----------------|3---3-3-*-------|
E :----------------|----------------|----------------|----------------|


G :----------------|----------------|----------------|----------------|
D :----------------|----------------|----------------|--------2-3-5---|
A :----------3-0---|----------------|-------------0--|3---3-3-*-------|
E :5---5---5-*-----|1---1----1------|3-3---3---3-----|----------------|


G :----------------|----------------|----------------|----------------|
D :----------------|----------------|----------------|--------2-3-5---|
A :----------3-0---|----------------|-------------0--|3---3-3-*-------|
E :5---5---5-*-----|1---1----1------|3-3---3---3-----|----------------|


G :----------------|----------------|----------------|----------------|
D :----------------|----------------|----------------|----------------|
A :----------3-0---|----------------|-------------0--|----------------|
E :5---5---5-*-----|1---1----1------|3-3---3---3-----|----------------|


G :----------------|----------------|----------------|----------------|
D :----------------|----------------|----------------|--------2-3-5---|
A :----------------|----------------|----------------|3---3-3-*-------|
E :----------------|----------------|----------------|----------------|


G :----------------|----------------|----------------|----------------|
D :----------------|----------------|----------------|--------2-3-5---|
A :----------3-0---|----------------|-------------0--|3---3-3-*-------|
E :5---5---5-*-----|1---1----1------|3-3---3---3-----|----------------|


G :----------------|----------------|----------------|----------------|
D :----------------|----------------|----------------|--------2-3-5---|
A :----------3-0---|----------------|-------------0--|3---3-3-*-------|
E :5---5---5-*-----|1---1----1------|3-3---3---3-----|----------------|


G :----------------|----------------|----------------|----------------|
D :----------------|----------------|----------------|----------------|
A :----------3-0---|----------------|-------------0--|----------------|
E :5---5---5-*-----|1---1----1------|3-3---3---3-----|----------------|


G :----------------|----------------|----------------|----------------|
D :----------------|----------------|----------------|--------2-3-5---|
A :----------------|----------------|----------------|3---3-3-*-------|
E :----------------|----------------|----------------|----------------|


G :----------------|----------------|----------------|----------------|
D :----------------|----------------|----------------|--------2-3-5---|
A :----------3-0---|----------------|-------------0--|3---3-3-*-------|
E :5---5---5-*-----|1---1----1------|3-3---3---3-----|----------------|


G :----------------|----------------|----------------|----------------|
D :----------------|----------------|----------------|--------2-3-5---|
A :----------3-0---|----------------|-------------0--|3---3-3-*-------|
E :5---5---5-*-----|1---1----1------|3-3---3---3-----|----------------|


G :----------------|----------------|----------------|----------------|
D :----------------|----------------|----------------|----------------|
A :----------3-0---|----------------|-------------0--|----------------|
E :5---5---5-*-----|1---1----1------|3-3---3---3-----|----------------|



Get this song at amazon.com      Ebay     Ringtones Ringtones  


Learn to play: Songwriting, Piano, Harmonica, Guitar
More Led Zeppelin lyrics available at Muzikum

Related Led Zeppelin Bass Tabs

Black Dog(100% Correct) bass
Moby Dick (live) bass
Kashmir Intro bass
Night Flight bass
Since Ive Been Loving You bass
Kashmir bass
Rock And Roll bass
Rock & Roll bass
Fool In The Rain bass
Travelling Riverside Blues bass
Immigration Song bass
Out On The Tiles (complete) bass
No Quater bass
Trampled Under Foot bass
Tangerine bass
Achelles Last Stand bass
Good Times Bad Times bass
Black Dog Bass Tab bass
Hey Hey What Can I Do bass
Archilles Last Stand (fixed) bass


Guitar Tabs









All tabs are property and copyright of their owners. All tabs provided for educational purposes only. Privacy Policy, DMCA