Led Zeppelin

Custed Pie Tabs



More from Led Zeppelin

Led Zeppelin Tabs
Led Zeppelin Chords
Led Zeppelin Bass
Led Zeppelin Lyrics

tabs-database.com[http://www.tabs-database.com.com/]
tabs-database.com[http://www.tabs-database.com.com/]
Custard Pie-Led Zeppelin

------------------|-----------|

------------------|-----------|

---2-2-2-4-4-4-5--|---2-0-2---|

---2-2-2-4-4-4-5--|---2-0-2---|

---0-0-0-0-0-0-0--|---0-0-0---|

------------------|-----------| Repeat for a while then do:



-----------------|---------------|--------------|

-----------------|---------------|--------------|

--7--------------|---7-6-5-------|---5-4-3------|

--7--------------|---7-6-5-------|---5-4-3------|

--5--------------|---5-4-3-------|---3-2-1------|

-----------------|---------------|--------------|

Please rate this tab. This is my first tab and I want to know how well I’m doing!

Peace

Ryan









Copyright 1999-2005 tabs-database.com[http://www.tabs-database.com.com/]
Added by tabs-database.com and our distinguished partners
Get this song at amazon.com      Ebay     Ringtones Ringtones  


Learn to play: Songwriting, Piano, Harmonica, Guitar
More Led Zeppelin lyrics available at Muzikum

Related Led Zeppelin Tabs

Trampled Under Foot tabs
Black Dog (Version 2) tabs
Prison Blues tabs
Tangerine tabs
Dyer Maker Bass tabs
Were Gonna Groove Bass tabs
Since I tabs
Swan Song tabs
Hots On For Nowhere tabs
Lemon Song tabs
What Is And What Should Never Be Bass tabs
Presence tabs
Going To California tabs
Black Dog Tab tabs
White Summer tabs
Night Flight tabs
No Quarter (perfecto) tabs
Stair Way To Heaven tabs
Heartbreaker tabs
Baby Come On Home tabs


Guitar Tabs









All tabs are property and copyright of their owners. All tabs provided for educational purposes only. Privacy Policy, DMCA