Led Zeppelin

Communication Breakdown Bass Tabs



More from Led Zeppelin

Led Zeppelin Tabs
Led Zeppelin Chords
Led Zeppelin Bass
Led Zeppelin Lyrics

Date: Tue, 18 Jun 2002 22:21:41 +0300 (EEST)
From: =?ISO-8859-1?Q?jan_bj=F6rklund?= 
Subject: l/led_zeppelin/communication_breakdown.btab

l/led_zeppelin/communication_breakdown.btab

TablEdited by Jan Bjorklund   
You are welcome to request for tabs!
Fingering and positions as suggested by TablEdit, please use common sense.


TablEdited by Jan Bjorklund
Tuning : E A D G 	Time Signature: 4/4

  |               |               |               |                 
|------------------------------------------------------------------|
|---------0---------------------------------------0----------------|
|---------------------------------0--------------------------------|
|------------------------------------------------------------------|

  |               |               |               |                 
||-----------------------------------------------------------------|
|*2-------2-------2-------2-------2-------2-------2-------2--------|
|*-----------------------------------------------------------------|
||-----------------------------------------------------------------|

>2|               |               |               |                 
|-----------------------------------------------------------------||
|-2-------0---------------------------------------0---------------*|
|---------------------------------0-------------------------------*|
|-----------------------------------------------------------------||

  |               |               |               |                 
|---------------------------------------------------------2--------|
|-----------------------------------------2-------4----------------|
|-0-------0-------0-------3-------4--------------------------------|
|------------------------------------------------------------------|

  |               |               |               |                 
|---------2-------2-------2----------------------------------------|
|---------------------------------4-------2------------------------|
|-------------------------------------------------4-------0--------|
|------------------------------------------------------------------|

  |               |               |               |                 
|---------------------------------------------------------2--------|
|-----------------------------------------2-------4----------------|
|---------0-------0-------3-------4--------------------------------|
|------------------------------------------------------------------|

  |               |               |               |                 
|------------------------------------------------------------------|
|---------4---------------2----------------------------------------|
|-----------------------------------------4-------2-------0--------|
|------------------------------------------------------------------|

  |               |               |               |                 
|---------------------------------4-------2------------------------|
|-------------------------------------------------4----------------|
|-2-------2-------2-------2-------------------------------2--------|
|------------------------------------------------------------------|

  |               |               |               |                 
|-------------------------------------------------2-------4--------|
|---------2---------------3---------------4------------------------|
|------------------------------------------------------------------|
|------------------------------------------------------------------|

  |               |               |               |                 
|---------2-------------------------------------------------------||
|-------------------------4---------------1-------2---------------||
|---------------------------------------------------------2-------||
|-----------------------------------------------------------------||

>1|               |               |               |                 
|-----------------------------------------------------------------||
|-----------------------------------------------------------------*|
|---------2-------2---------------2---------------2---------------*|
|-----------------------------------------------------------------||

  |               |               |               |                 
|---------0--------------------------------------------------------|
|-------------------------4---------------2------------------------|
|---------------------------------------------------------4--------|
|------------------------------------------------------------------|

  |               |               |               |                 
|---------4-----------------------4-------2------------------------|
|-------------------------------------------------4----------------|
|-2-------------------------------------------------------2--------|
|------------------------------------------------------------------|

  |               |               |               |                 
|-------------------------------------------------2-------4--------|
|-------------------------1---------------4------------------------|
|---------2--------------------------------------------------------|
|------------------------------------------------------------------|

  |               |               |               |                 
|---------2--------------------------------------------------------|
|-------------------------4---------------2------------------------|
|-------------------------------------------------5-------2--------|
|------------------------------------------------------------------|

  |               |               |               |                 
|------------------------------------------------------------------|
|------------------------------------------------------------------|
|---------2-------2-------2-------2---------------2----------------|
|------------------------------------------------------------------|

  |               |               |               |                 
|------------------------------------------------------------------|
|-2----------------------------------------------------------------|
|------------------------------------------------------------------|
|------------------------------------------------------------------|

  |               |               |               |                 
|------------------------------------------------------------------|
|------------------------------------------------------------------|
|------------------------------------------------------------------|
|------------------------------------------------------------------|

  |               |               |               |                 
|------------------------------------------------------------------|
|-2-------2-------2-------2-------2-------2-------2-------2--------|
|------------------------------------------------------------------|
|------------------------------------------------------------------|

  |               |               |               |                 
|------------------------------------------------------------------|
|-2-------0--------------------------------------------------------|
|---------------------------------0---------------0----------------|
|------------------------------------------------------------------|

  |               |               |               |                 
|------------------------------------------------------------------|
|-2-------2-------2-------2-------2-------2-------2-------2--------|
|------------------------------------------------------------------|
|------------------------------------------------------------------|

  |               |               |               |                 
|-------------------------------------------------2----------------|
|-2-------0--------------------------------------------------------|
|---------------------------------0--------------------------------|
|------------------------------------------------------------------|

  |               |               |               |                 
|---------------------------------------------------------2--------|
|-----------------------------------------2------------------------|
|-0-------0-------0-------3-------4--------------------------------|
|------------------------------------------------------------------|

  |               |               |               |                 
|---------0--------------------------------------------------------|
|-------------------------4---------------2---------------0--------|
|------------------------------------------------------------------|
|------------------------------------------------------------------|

  |               |               |               |                 
|------------------------------------------------------------------|
|------------------------------------------------------------------|
|---------4---------------2---------------0------------------------|
|---------------------------------------------------------2--------|

  |               |               |               |                 
|------------------------------------------------------------------|
|------------------------------------------------------------------|
|-----------------------------------------0-------0-------0--------|
|---------3---------------4----------------------------------------|

  |               |               |               |                 
|---------------------------------------------------------11-------|
|---------------------------------9--------------------------------|
|-2-------2-------2-------2---------------12-----------------------|
|------------------------------------------------------------------|

  |               |               |               |                 
|---------11--------------9---------------8------------------------|
|-------------------------------------------------9----------------|
|---------------------------------------------------------12-------|
|------------------------------------------------------------------|

  |               |               |               |                 
|------------------------------------------------------------------|
|---------4---------------2---------------0---------------1--------|
|------------------------------------------------------------------|
|------------------------------------------------------------------|

  |               |               |               |                 
|------------------------------------------------------------------|
|------------------------------------------------------------------|
|---------2---------------------------------------2----------------|
|------------------------------------------------------------------|

  |               |               |               |                 
|------------------------------------------------------------------|
|-2-------2-------2-------2-------2-------2-------2-------2--------|
|------------------------------------------------------------------|
|------------------------------------------------------------------|

  |               |               |               |                 
|------------------------------------------------------------------|
|-2-------0---------------------------------------0----------------|
|---------------------------------0--------------------------------|
|------------------------------------------------------------------|

  |               |               |               |                 
|------------------------------------------------------------------|
|-2-------2-------2-------2-------2-------2-------2-------2--------|
|------------------------------------------------------------------|
|------------------------------------------------------------------|

  |               |               |               |                 
|------------------------------------------------------------------|
|-2-------0---------------------------------------0----------------|
|---------------------------------0--------------------------------|
|------------------------------------------------------------------|

  |               |               |               |                 
|------------------------------------------------------------------|
|-2-------2-------2-------2-------2-------2-------2-------2--------|
|------------------------------------------------------------------|
|------------------------------------------------------------------|

  |               |               |               |                 
|------------------------------------------------------------------|
|-2-------0---------------------------------------0----------------|
|---------------------------------0--------------------------------|
|------------------------------------------------------------------|

  |               |               |               |                 
|------------------------------------------------------------------|
|-2-------2-------2-------2-------2-------2-------2-------2--------|
|------------------------------------------------------------------|
|------------------------------------------------------------------|

  |               |               |               |                 
|------------------------------------------------------------------|
|-2-------0---------------------------------------0----------------|
|---------------------------------0--------------------------------|
|------------------------------------------------------------------|

  |               |               |               |                 
|------------------------------------------------------------------|
|-2-------2-------2-------2-------2-------2-------2-------2--------|
|------------------------------------------------------------------|
|------------------------------------------------------------------|

  |               |               |               |                 
|------------------------------------------------------------------|
|-2-------0---------------------------------------0----------------|
|---------------------------------0--------------------------------|
|------------------------------------------------------------------|

  |               |               |               |                 
|------------------------------------------------------------------|
|-2-------2--------------------------------------------------------|
|------------------------------------------------------------------|
|------------------------------------------------------------------|




Created with TablEdit http://www.tabledit.com/


............................................................
Get this song at amazon.com      Ebay     Ringtones Ringtones  


Learn to play: Songwriting, Piano, Harmonica, Guitar
Also available at Muzikum: Led Zeppelin - Communication Breakdown lyrics

Related Led Zeppelin Bass Tabs

The Girl I Love She Got Long Black Wavy Hair bass
Lemon Song Bass Solo bass
Black Dog (tabbed From Notes) bass
Hart Breaker bass
Wearing And Tearing bass
Black Country Woman bass
Trampeled Underfoot bass
Custard Pie bass
Four Sticks bass
Gallows Pole bass
Black Dog bass
Travelling Riverside Blues bass
All My Love bass
Kashmir (correct) bass
Sick Again bass
Kashmir (the Right Way!) bass
Bring It On Home- The Whole Song bass
Heartbreaker bass
Misty Moutain Hop bass
The Rover bass


Guitar Tabs









All tabs are property and copyright of their owners. All tabs provided for educational purposes only. Privacy Policy, DMCA