Led Zeppelin

Celebration Day Bass Tabs



More from Led Zeppelin

Led Zeppelin Tabs
Led Zeppelin Chords
Led Zeppelin Bass
Led Zeppelin Lyrics



Celebration Day - Led Zeppelin


G|----------------|----------------|----------------|----------------|
D|----------------|----------------|----------------|----------------|
A|----------------|----------------|----------------|----------------|
E|--5-5-5---5-545-|--5-5-5---5---5-|--5-5-5---5-545-|--5-5-5--12-4-4-|


G|----------------|----------------|----------------|----------------|
D|----------------|----------------|----------------|----------------|
A|----------------|----------------|----------------|----------------|
E|--5-5-5---5-545-|--5-5-5---5-545-|--5-5-5---5-545-|--5-5-5--55-5-3-|

G|----------------|----------------|----------------|----------------||
D|----------------|----------------|----------------|----------------||
A|----------------|----------------|----------------|------------0012||
E|--5-5-5-------5-|--5-5-5---5-5-4-|--5-5-5---5-545-|--5-5-5--02-----||

G|----------------|----------------|----------------|----------223344|
D|--------2-3-4-5-|--5-5-----------|----------0-1-3-|--3-3-333-------|
A|3---3--3--------|-------02-23-31-|--1-1--11-------|----------------|
E|----------------|----------------|----------------|----------------|

G|5---5-0---------|----------------|----------------|----------------||
D|----------2-3-5-|--5-5--552------|-----------1-12-|33-3-3-322-2-2--||
A|--------3-------|----------52--1-|--1-1--11-5-----|----------------||
E|----------------|------------3---|----------------|---------------0||

G|----------------|----------------|----------------|----------------|
D|--------7-------|--------2-------|----------------|----------------|
A|0-0-0-0---0---0-|--0---0---0---0-|0-0---0---0---0-|--0-0-----0-300-|
E|----------------|----------------|-------------3--|-----33-3-------|

G|----------------|----------------|----------------|----------------|
D|----------------|----------------|----------------|----------------|
A|----------------|----------------|----------------|----------------|
E|--5-5-5---5-545-|--5-5-5---5---5-|--5-5-5---5-545-|--5-5-5--12-4-4-|

G|----------------|----------------|----------------|----------------|
D|----------------|----------------|----------------|----------------|
A|----------------|----------------|----------------|----------------|
E|--5-5-5---5-545-|--5-5-5---5-545-|--5-5-5---5-545-|--5-5-5--55-5-3-|

G|----------------|----------------|----------------|----------------||
D|----------------|----------------|----------------|----------------||
A|----------------|----------------|----------------|------------0012||
E|--5-5-5-------5-|--5-5-5---5-5-4-|--5-5-5---5-545-|--5-5-5--02-----||

G|----------------|----------------|----------------|----------223344|
D|--------2-3-4-5-|--5-5-----------|----------0-1-3-|--3-3-333-------|
A|3---3--3--------|-------02-23-31-|--1-1--11-------|----------------|
E|----------------|----------------|----------------|----------------|

G|5---5-0---------|----------------|----------------|----------------||
D|----------2-3-5-|--5-5--552------|-----------1-12-|33-3-3-322-2-2--||
A|--------3-------|----------52--1-|--1-1--11-5-----|----------------||
E|----------------|------------3---|----------------|---------------0||

Guitar Solo
G|----------------|----------------|----------------|--------22223344|
D|----------------|----------0-2-3-|--3-------0-1-3-|--3-3-3---------|
A|3---3-----------|--2-2-3-3-------|----1---1-------|----------------|
E|--------0-1-2-3-|3---------------|----------------|----------------|

G|5---------------|----------------|----------------|----------------|
D|--5-------2-3-5-|--5-------------|------------0-1-|33-3-3-122-2-2--|
A|----3--33-------|----2--23-5-1-1-|--1-1---1-1-----|---------------0|
E|----------------|----------------|----------------|----------------|

G|----------------|----------------|----------------|----------------|
D|--------7-------|--------2-------|----------------|----------------|
A|0-0-0-0---0---0-|--0---0---0---0-|0-0---0---0---0-|--0-0-----0-300-|
E|----------------|----------------|-------------3--|-----33-3-------|

G|----------------|----------------|----------------|----------------|
D|----------------|----------------|----------------|----------------|
A|----------------|----------------|----------------|----------------|
E|--5-5-5---5-545-|--5-5-5---5---5-|--5-5-5---5-545-|--5-5-5--12-4-4-|

G|----------------|----------------|----------------|----------------|
D|----------------|----------------|----------------|----------------|
A|----------------|----------------|----------------|----------------|
E|--5-5-5---5-545-|--5-5-5---5-545-|--5-5-5---5-545-|--5-5-5--55-5-3-|

G|----------------|----------------|----------------|----------------||
D|----------------|----------------|----------------|----------------||
A|----------------|----------------|----------------|------------0012||
E|--5-5-5-------5-|--5-5-5---5-5-4-|--5-5-5---5-545-|--5-5-5--02-----||

G|----------------|----------------|----------------|----------------|
D|----------------|------------75--|----------------|----------------|
A|--0-0-0---0---0-|--0---0---0---7-|0-0---0---0---0-|--0-0-00003-0---|
E|----------------|----------------|-------------3--|-------------33-|

G|----------------|----------------|----------------|----------------|
D|----------------|----------------|--------7-------|------------0-02|
A|--0-0-0---0---0-|--0---0---0-0---|--0---0---0-30--|--0---0-004--0--|
E|----------------|--------------3-|--------------3-|----------------| Repeat and fade








Get this song at amazon.com      Ebay     Ringtones Ringtones  


Learn to play: Songwriting, Piano, Harmonica, Guitar
Also available at Muzikum: Led Zeppelin - Celebration Day lyrics

Related Led Zeppelin Bass Tabs

Gallows Pole 99 9% Correct bass
The Crunge bass
Black Dog Bass Tab bass
Kashmir bass
California Girl bass
Dazed And Confused Note For Note bass
All My Love bass
Thats The Way bass
Royal Orleans bass
Dazed And Confuzed bass
Bron-y-aur Stomp (correct) bass
Misty Moutain Hop bass
Hots On For Nowhere bass
Im Gonna Crawl bass
Most High bass
Out On The Tiles (complete) bass
Wearing And Tearing bass
Stairway To Heaven( Out Of Book, Perfect No Questions Asked) bass
Rock And Roll bass
South Bound Suarez bass


Guitar Tabs









All tabs are property and copyright of their owners. All tabs provided for educational purposes only. Privacy Policy, DMCA