Led Zeppelin

California Girl Bass Tabs



More from Led Zeppelin

Led Zeppelin Tabs
Led Zeppelin Chords
Led Zeppelin Bass
Led Zeppelin Lyrics




Chorus/MainRiff
G|-----------------------------------------------||
D|-----------------------------------------------||
A|------------------------------7-7-7-7-7-7-7-7--||
E|7-7-7-7-7-7-7-7-3-3-3-3-3-3-3------------------||

Verse
G|--------------||
D|--------------||
A|------5-7-----||
E|3-5-7-----5-7-||

the end of the song
G|----------------------------------------------------||
D|play-that-to-the-end--------------------------------||
A|----------------------------------------------------||
E|7-7-7-7-7-7-7-7-3-3-3-3-3-3-3-3-4-5-7-7-7-7-7-7-7-7-||



Get this song at amazon.com      Ebay     Ringtones Ringtones  


Learn to play: Songwriting, Piano, Harmonica, Guitar
More Led Zeppelin lyrics available at Muzikum

Related Led Zeppelin Bass Tabs

Bron Y Aur Stomp bass
The Girl I Love bass
Celebration Day bass
Heartbreaker bass
Trampeled Underfoot bass
No Quarter bass
In My Time Of Dying bass
Bring It On Home bass
Rock & Roll bass
Babe, I'm Gonna Leave You bass
Sick Again bass
How Many More Times Intro bass
I Cant Quit You Baby bass
Travelling Riverside Blues bass
In The Light bass
Moby Dick bass
Rock And Roll Correct Version bass
Bring It On Home- The Whole Song bass
Ten Years Gone bass
No Quater bass


Guitar Tabs









All tabs are property and copyright of their owners. All tabs provided for educational purposes only. Privacy Policy, DMCA