Led Zeppelin

Bron Y Aur Stomp Bass Tabs



More from Led Zeppelin

Led Zeppelin Tabs
Led Zeppelin Chords
Led Zeppelin Bass
Led Zeppelin Lyrics



Standard Tuning

When bass comes in at approx. 0:45
G| ----------------|----------------|----------------|----------------|
D|o----------------|----------------|----------------|----------------|
A|o----------------|----------------|----------------|----------------|
E| 6-----------1-4-|5-6---1-6---1-4-|5-6---1-6---1-4-|5-6---1-6---4---|

3/4 time
G|----------------|---------------- |----------------|------------|
D|----------------|----------------o|----------------|------------|
A|1---------------|----------------o|----------------|------------|
E|----------------|---------------- |3---------------|6-----------|

3/8 2/8 3/8 4/8
G|------|------|----|------|------|--------|
D|------|------|----|------|------|--------|
A|------|------|----|------|------|--------|
E|1-4-6-|1-----|1---|1-4-6-|1-----|1-----4-|

4/4 3/4 3/8 2/8 3/8 4/8
G|----------------|------------|------|------|----|------|------|--------|
D|----------------|------------|------|------|----|------|------|--------|
A|----------------|------------|------|------|----|------|------|--------|
E|1---------------|6-----------|1-4-6-|1-----|1---|1-4-6-|1-----|1-------|
Hear the wind whisper in the trees.....

4/4
G|----------------|----------------|----------------|----------------|
D|----------------|----------------|----------------|----------------|
A|----------------|----------------|----------------|----------------|
E|3---------------|3---------------|6-----------1-4-|5-6---1-6---1-4-|
Well, if the sun shines so bright.....

G|----------------|----------------|----------------|----------------|
D|----------------|----------------|----------------|----------------|
A|----------------|----------------|----------------|----------------|
E|5-6---16----1-4-|5-6---16----4---|1---------------|1---------------|

G|----------------|----------------|----------------|----------------|
D|----------------|----------------|----------------|----------------|
A|----------------|----------------|----------------|----------------|
E|6-----------2-4-|5-6---1-6---1-4-|5-6---------1-4-|5-6---16----4---|

G|----------------|----------------|
D|----------------|----------------|
A|----------------|----------------|
E|1---------------|1---------------|

4/4 time 3/4 3/8 2/8 3/8 3/8 4/8
G|----------------|------------|------|------|----|------|------|--------|
D|----------------|------------|------|------|----|------|------|--------|
A|----------------|------------|------|------|----|------|------|--------|
E|3---------------|6-----------|1-4-6-|1-----|1---|1-4-6-|1-----|1-----4-|
As we walk down a country lane....

4/4 time 3/4 3/8 2/8 3/8 3/8 4/8
G|----------------|------------|------|------|----|------|------|--------|
D|----------------|------------|------|------|----|------|------|--------|
A|----------------|------------|------|------|----|------|------|--------|
E|3---------------|6-----------|1-4-6-|1-----|1---|1-4-6-|1-----|1-------|

6/4 time 4/8 6/4 6/4
G|------------------------|--------|------------------------|--------|
D|------------------------|--------|------------------------|--------|
A|------------------------|--------|------------------------|--------|
E|1-----------------------|4-6-1-1-|1-----------------------|4-6-1-1-|

6/4 time 4/8 6/4 6/4
G|------------------------|--------|------------------------|--------|
D|------------------------|--------|------------------------|--------|
A|------------------------|--------|------------------------|--------|
E|1-----------------------|4-6-1-1-|1-----------------------|4-6-1-1-|
My, my___ la de da..... Tell your friends all around.....

4/4 time 3/4 3/8 2/8 3/8 3/8 4/8
G|----------------|------------|------|------|----|------|------|--------|
D|----------------|------------|------|------|----|------|------|--------|
A|----------------|------------|------|------|----|------|------|--------|
E|3---------------|6-----------|1-4-6-|1-----|1---|1-4-6-|1-----|1-------|

4/4 time 3/4 3/8 2/8 3/8 3/8 4/8
G|----------------|------------|------|------|----|------|------|--------|
D|----------------|------------|------|------|----|------|------|--------|
A|----------------|------------|------|------|----|------|------|--------|
E|3---------------|6-----------|1-4-6-|1-----|1---|1-4-6-|1-----|1-------|
Come on now, well let me tell you.....

2/4 4/4 2/8 3/4 2/8
G|--------| |----------------| |----|------------|----|
D|--------| |----------------| |----|------------|----|
A|--------| |----------------| |----|------------|----|
E|--------| 4x |----------------| 6X |----|------------|----|

3/4 2/8
G|------------|----|
D|------------|----|
A|------------|----|
E|------------|----|

4/4
G|----------------|----------------|----------------|----------------|
D|----------------|----------------|----------------|----------------|
A|----------------|----------------|----------------|----------------|
E|----------------|----------------|----------------|----------------|

G|----------------|----------------|----------------|----------------|
D|----------------|----------------|----------------|----------------|
A|----------------|----------------|----------------|----------------|
E|----------------|----------------|6-----------1-4-|5-6---1-6---1-4-|
So of one thing I am sure

G|----------------|----------------|----------------|----------------|
D|----------------|----------------|----------------|----------------|
A|----------------|----------------|----------------|----------------|
E|5-6---1-6---1-4-|5-6---1-6---4---|1---------------|1---------------|

G|----------------|----------------|----------------|----------------|
D|----------------|----------------|----------------|----------------|
A|----------------|----------------|----------------|----------------|
E|6-----------1-4-|5-6---1-6---1-4-|5-6---1-6---1-4-|5-6---1-6---4---|
Yeah, aint but one thing to do.....

3/4
G|----------------|----------------|----------------|------------|
D|----------------|----------------|----------------|------------|
A|----------------|----------------|----------------|------------|
E|1---------------|1---------------|3---------------|6-----------|

3/8 2/8 3/8 4/8 4/4
G|------|------|----|------|------|--------|----------------|
D|------|------|----|------|------|--------|----------------|
A|------|------|----|------|------|--------|----------------|
E|1-4-6-|1-----|1---|1-4-6-|1-----|1-------|3---------------|
We'll still go walking.....

3/4 3/8 2/8 3/8 4/8
G|------------|------|------|----|------|------|--------|
D|------------|------|------|----|------|------|--------|
A|------------|------|------|----|------|------|--------|
E|6-----------|1-4-6-|1-----|1---|1-4-6-|1-----|1-------|



Get this song at amazon.com      Ebay     Ringtones Ringtones  


Learn to play: Songwriting, Piano, Harmonica, Guitar
Also available at Muzikum: Led Zeppelin - Bron-Y-Aur Stomp lyrics

Related Led Zeppelin Bass Tabs

Im Gonna Crawl bass
Bron Y Aur Stomp bass
Carouselambra bass
Dancing Days bass
Misty Mountain Hop bass
Black Dog Bass Tab bass
Achillies Last Stand bass
Friends bass
In The Light bass
Crunge bass
The Crunge bass
Misty Mountain bass
Rock N Roll bass
Ramble On bass
Rock & Roll bass
Black Country Woman bass
Bring It On Home bass
Kashmir (the Right Way!) bass
Rock And Roll Correct Version bass
Nobodys Fault But Mine bass


Guitar Tabs









All tabs are property and copyright of their owners. All tabs provided for educational purposes only. Privacy Policy, DMCA